  0
SECTION
  2
HEADER
  9
$ACADVER
  1
AC1009
  9
$INSBASE
 10
0.0
 20
0.0
 30
0.0
  9
$EXTMIN
 10
212.518724
 20
-156.049317
 30
119.683453
  9
$EXTMAX
 10
322.834536
 20
-35.452839
 30
180.982291
  9
$LIMMIN
 10
0.0
 20
0.0
  9
$LIMMAX
 10
200.0
 20
200.0
  9
$ORTHOMODE
 70
     1
  9
$REGENMODE
 70
     1
  9
$FILLMODE
 70
     1
  9
$QTEXTMODE
 70
     0
  9
$MIRRTEXT
 70
     1
  9
$DRAGMODE
 70
     2
  9
$LTSCALE
 40
1.0
  9
$OSMODE
 70
    33
  9
$ATTMODE
 70
     1
  9
$TEXTSIZE
 40
2.5
  9
$TRACEWID
 40
1.0
  9
$TEXTSTYLE
  7
STANDARD
  9
$CLAYER
  8
0
  9
$CELTYPE
  6
BYLAYER
  9
$CECOLOR
 62
   256
  9
$DIMSCALE
 40
1.0
  9
$DIMASZ
 40
2.5
  9
$DIMEXO
 40
0.625
  9
$DIMDLI
 40
3.75
  9
$DIMRND
 40
0.0
  9
$DIMDLE
 40
0.0
  9
$DIMEXE
 40
1.25
  9
$DIMTP
 40
0.0
  9
$DIMTM
 40
0.0
  9
$DIMTXT
 40
2.5
  9
$DIMCEN
 40
2.5
  9
$DIMTSZ
 40
0.0
  9
$DIMTOL
 70
     0
  9
$DIMLIM
 70
     0
  9
$DIMTIH
 70
     1
  9
$DIMTOH
 70
     0
  9
$DIMSE1
 70
     0
  9
$DIMSE2
 70
     0
  9
$DIMTAD
 70
     1
  9
$DIMZIN
 70
     8
  9
$DIMBLK
  1

  9
$DIMASO
 70
     1
  9
$DIMSHO
 70
     1
  9
$DIMPOST
  1

  9
$DIMAPOST
  1

  9
$DIMALT
 70
     0
  9
$DIMALTD
 70
     2
  9
$DIMALTF
 40
0.0394
  9
$DIMLFAC
 40
1.0
  9
$DIMTOFL
 70
     1
  9
$DIMTVP
 40
1.0
  9
$DIMTIX
 70
     0
  9
$DIMSOXD
 70
     0
  9
$DIMSAH
 70
     0
  9
$DIMBLK1
  1

  9
$DIMBLK2
  1

  9
$DIMSTYLE
  2
ISO-25
  9
$DIMCLRD
 70
     0
  9
$DIMCLRE
 70
     0
  9
$DIMCLRT
 70
     0
  9
$DIMTFAC
 40
1.0
  9
$DIMGAP
 40
0.625
  9
$LUNITS
 70
     2
  9
$LUPREC
 70
     0
  9
$AXISMODE
 70
     0
  9
$AXISUNIT
 10
0.0
 20
0.0
  9
$SKETCHINC
 40
1.0
  9
$FILLETRAD
 40
20.0
  9
$AUNITS
 70
     0
  9
$AUPREC
 70
     0
  9
$MENU
  1
acad
  9
$ELEVATION
 40
0.0
  9
$PELEVATION
 40
0.0
  9
$THICKNESS
 40
0.0
  9
$LIMCHECK
 70
     0
  9
$BLIPMODE
 70
     1
  9
$CHAMFERA
 40
10.0
  9
$CHAMFERB
 40
10.0
  9
$SKPOLY
 70
     0
  9
$TDCREATE
 40
2451125.475305671
  9
$TDUPDATE
 40
2451174.808749988
  9
$TDINDWG
 40
0.0697335301
  9
$TDUSRTIMER
 40
0.0697219907
  9
$USRTIMER
 70
     1
  9
$ANGBASE
 50
0.0
  9
$ANGDIR
 70
     0
  9
$PDMODE
 70
     0
  9
$PDSIZE
 40
0.0
  9
$PLINEWID
 40
0.0
  9
$COORDS
 70
     1
  9
$SPLFRAME
 70
     0
  9
$SPLINETYPE
 70
     6
  9
$SPLINESEGS
 70
     8
  9
$ATTDIA
 70
     0
  9
$ATTREQ
 70
     1
  9
$HANDLING
 70
     1
  9
$HANDSEED
  5
3E04
  9
$SURFTAB1
 70
    22
  9
$SURFTAB2
 70
     4
  9
$SURFTYPE
 70
     6
  9
$SURFU
 70
     6
  9
$SURFV
 70
     6
  9
$UCSNAME
  2

  9
$UCSORG
 10
0.0
 20
0.0
 30
0.0
  9
$UCSXDIR
 10
1.0
 20
0.0
 30
0.0
  9
$UCSYDIR
 10
0.0
 20
1.0
 30
0.0
  9
$PUCSNAME
  2

  9
$PUCSORG
 10
0.0
 20
0.0
 30
0.0
  9
$PUCSXDIR
 10
1.0
 20
0.0
 30
0.0
  9
$PUCSYDIR
 10
0.0
 20
1.0
 30
0.0
  9
$USERI1
 70
     0
  9
$USERI2
 70
     0
  9
$USERI3
 70
     0
  9
$USERI4
 70
     0
  9
$USERI5
 70
     0
  9
$USERR1
 40
0.0
  9
$USERR2
 40
0.0
  9
$USERR3
 40
0.0
  9
$USERR4
 40
0.0
  9
$USERR5
 40
0.0
  9
$WORLDVIEW
 70
     1
  9
$SHADEDGE
 70
     3
  9
$SHADEDIF
 70
    70
  9
$TILEMODE
 70
     1
  9
$MAXACTVP
 70
    16
  9
$PINSBASE
 10
0.0
 20
0.0
 30
0.0
  9
$PLIMCHECK
 70
     0
  9
$PEXTMIN
 10
1.000000E+20
 20
1.000000E+20
 30
1.000000E+20
  9
$PEXTMAX
 10
-1.000000E+20
 20
-1.000000E+20
 30
-1.000000E+20
  9
$PLIMMIN
 10
0.0
 20
0.0
  9
$PLIMMAX
 10
420.0
 20
297.0
  9
$UNITMODE
 70
     0
  9
$VISRETAIN
 70
     0
  9
$PLINEGEN
 70
     0
  9
$PSLTSCALE
 70
     1
  9
$TREEDEPTH
 70
  3020
  9
$DWGCODEPAGE
  3
dos850
  0
ENDSEC
  0
SECTION
  2
TABLES
  0
TABLE
  2
VPORT
 70
     1
  0
VPORT
  2
*ACTIVE
 70
     0
 10
0.0
 20
0.0
 11
1.0
 21
1.0
 12
273.288547
 22
192.934589
 13
0.0
 23
0.0
 14
10.0
 24
10.0
 15
10.0
 25
10.0
 16
-1.0
 26
-1.0
 36
1.0
 17
0.0
 27
0.0
 37
0.0
 40
144.31984
 41
1.357349
 42
50.0
 43
0.0
 44
0.0
 50
0.0
 51
0.0
 71
     0
 72
   100
 73
     1
 74
     1
 75
     0
 76
     0
 77
     0
 78
     0
  0
ENDTAB
  0
TABLE
  2
LTYPE
 70
     1
  0
LTYPE
  2
CONTINUOUS
 70
    64
  3
Solid line
 72
    65
 73
     0
 40
0.0
  0
ENDTAB
  0
TABLE
  2
LAYER
 70
     5
  0
LAYER
  2
0
 70
    64
 62
     7
  6
CONTINUOUS
  0
LAYER
  2
I-HOLD
 70
    64
 62
    40
  6
CONTINUOUS
  0
LAYER
  2
I-DISH
 70
    64
 62
   140
  6
CONTINUOUS
  0
LAYER
  2
ASHADE
 70
    64
 62
     7
  6
CONTINUOUS
  0
LAYER
  2
I-SOAP
 70
    64
 62
   130
  6
CONTINUOUS
  0
ENDTAB
  0
TABLE
  2
STYLE
 70
     1
  0
STYLE
  2
STANDARD
 70
    64
 40
0.0
 41
1.0
 50
0.0
 71
     0
 42
2.5
  3
ISOCP
  4

  0
ENDTAB
  0
TABLE
  2
VIEW
 70
     0
  0
ENDTAB
  0
TABLE
  2
UCS
 70
     0
  0
ENDTAB
  0
TABLE
  2
APPID
 70
     6
  0
APPID
  2
ACAD
 70
     0
  0
APPID
  2
AVE_RENDER
 70
     0
  0
APPID
  2
AVE_MATERIAL
 70
     0
  0
APPID
  2
AVE_ENTITY_MATERIAL
 70
     0
  0
APPID
  2
AVE_FINISH
 70
     0
  0
APPID
  2
AVE_GLOBAL
 70
     0
  0
ENDTAB
  0
TABLE
  2
DIMSTYLE
 70
     2
  0
DIMSTYLE
  2
STANDARD
 70
     0
  3

  4

  5

  6

  7

 40
1.0
 41
0.18
 42
0.0625
 43
0.38
 44
0.18
 45
0.0
 46
0.0
 47
0.0
 48
0.0
140
0.18
141
0.09
142
0.0
143
25.4
144
1.0
145
0.0
146
1.0
147
0.09
 71
     0
 72
     0
 73
     1
 74
     1
 75
     0
 76
     0
 77
     0
 78
     0
170
     0
171
     2
172
     0
173
     0
174
     0
175
     0
176
     0
177
     0
178
     0
  0
DIMSTYLE
  2
ISO-25
 70
     0
  3

  4

  5

  6

  7

 40
1.0
 41
2.5
 42
0.625
 43
3.75
 44
1.25
 45
0.0
 46
0.0
 47
0.0
 48
0.0
140
2.5
141
2.5
142
0.0
143
0.0394
144
1.0
145
1.0
146
1.0
147
0.625
 71
     0
 72
     0
 73
     1
 74
     0
 75
     0
 76
     0
 77
     1
 78
     8
170
     0
171
     2
172
     1
173
     0
174
     0
175
     0
176
     0
177
     0
178
     0
  0
ENDTAB
  0
ENDSEC
  0
SECTION
  2
BLOCKS
  0
BLOCK
  8
0
  5
161
  2
AVE_RENDER
 70
    64
 10
-56.733414
 20
0.0
 30
-37.452839
  1
AVE_RENDER
  3
AVE_RENDER
  0
ENDBLK
  8
0
  5
162
  0
BLOCK
  8
0
  5
16F
  2
AVE_GLOBAL
 70
    64
 10
-56.733414
 20
0.0
 30
-37.452839
  1
AVE_GLOBAL
  3
AVE_GLOBAL
  0
ENDBLK
  8
0
  5
170
  0
ENDSEC
  0
SECTION
  2
ENTITIES
  0
VIEWPORT
  8
0
  5
22
 67
     1
 68
     1
 10
261.517699
 20
148.5
 30
0.0
 40
523.035398
 41
297.0
 69
     1
1001
ACAD
1000
MVIEW
1002
{
1070
    16
1010
0.0
1020
0.0
1030
0.0
1010
0.0
1020
0.0
1030
1.0
1040
0.0
1040
297.0
1040
261.517699
1040
148.5
1040
50.0
1040
0.0
1040
0.0
1070
     0
1070
   100
1070
     1
1070
     1
1070
     0
1070
     0
1070
     0
1070
     0
1040
0.0
1040
0.0
1040
0.0
1040
1.0
1040
1.0
1040
10.0
1040
10.0
1070
     0
1002
{
1002
}
1002
}
  0
LINE
  8
I-HOLD
  5
39
 10
267.67663
 20
-52.007539
 30
153.980319
 11
267.67663
 21
-37.704764
 31
163.515503
210
0.0
220
-1.0
230
0.0
  0
LINE
  8
I-HOLD
  5
3F
 10
267.67663
 20
-35.452839
 30
163.683453
 11
267.67663
 21
-37.150064
 31
163.683453
210
0.0
220
-1.0
230
0.0
  0
LINE
  8
I-HOLD
  5
40
 10
267.67663
 20
-52.452839
 30
153.148269
 11
267.67663
 21
-52.452839
 31
146.683453
210
0.0
220
-1.0
230
0.0
  0
ARC
  8
I-HOLD
  5
44
 10
-37.150064
 20
162.683453
 30
267.67663
 40
1.0
 50
90.0
 51
123.690068
210
1.0
220
0.0
230
0.0
  0
ARC
  8
I-HOLD
  5
45
 10
51.452839
 20
153.148269
 30
-267.67663
 40
1.0
 50
0.0
 51
56.309932
210
-1.0
220
0.0
230
0.0
  0
INSERT
  8
I-HOLD
 62
     1
  5
163
  2
AVE_RENDER
 10
-56.733414
 20
0.0
 30
-37.452839
1001
AVE_RENDER
1002
{
1070
     6
1000
Pref
1070
    30
1070
    20
1070
     1
1070
     0
1000

1070
    10
1070
     1
1070
    30
1040
25.4
1070
     1
1040
0.3
1040
0.7
1040
0.0
1040
10.0
1010
-1.0
1020
-1.0
1030
-1.0
1040
0.3
1070
    49
1070
     0
1070
     0
1010
1.0
1020
1.0
1030
1.0
1040
45.0
1070
     1
1070
     0
1000
WCS
1040
0.0
1002
}
  0
INSERT
  8
I-HOLD
 62
     3
  5
164
  2
AVE_RENDER
 10
-56.733414
 20
0.0
 30
-37.452839
1001
AVE_RENDER
1002
{
1070
     0
1000
Full Opt
1070
     0
1070
     1
1070
     1
1070
     1
1070
     0
1070
     0
1070
     0
1070
     1
1070
     1
1040
0.0001
1040
0.0001
1002
}
  0
INSERT
  8
I-HOLD
 62
     4
  5
165
  2
AVE_RENDER
 10
-56.733414
 20
0.0
 30
-37.452839
1001
AVE_RENDER
1002
{
1070
     0
1000
Quick Opt
1070
     0
1070
     1
1070
     1
1070
     1
1070
     0
1070
     0
1070
     1
1002
}
  0
INSERT
  8
I-HOLD
 62
     5
  5
166
  2
AVE_RENDER
 10
-56.733414
 20
0.0
 30
-37.452839
1001
AVE_RENDER
1002
{
1070
     1
1000
Scanl Opt
1070
     2
1070
     0
1070
     2
1040
2.0
1040
4.0
1070
     0
1070
     1
1070
     0
1040
0.03
1002
}
  0
INSERT
  8
I-HOLD
 62
     6
  5
167
  2
AVE_RENDER
 10
-56.733414
 20
0.0
 30
-37.452839
1001
AVE_RENDER
1002
{
1070
     2
1000
Raytr Opt
1070
     2
1070
     0
1070
     2
1040
2.0
1040
4.0
1070
     0
1070
     1
1070
     1
1040
0.03
1070
     3
1040
0.03
1002
}
  0
INSERT
  8
I-HOLD
 62
     7
  5
168
  2
AVE_RENDER
 10
-56.733414
 20
0.0
 30
-37.452839
1001
AVE_RENDER
1002
{
1070
     0
1000
RFile Opt
1070
     5
1070
   640
1070
   480
1070
 10000
1070
     3
1070
    32
1070
    24
1070
     0
1070
     0
1070
     0
1070
     1
1070
     0
1070
     0
1070
     0
1002
}
  0
INSERT
  8
I-HOLD
 62
     8
  5
169
  2
AVE_RENDER
 10
-56.733414
 20
0.0
 30
-37.452839
1001
AVE_RENDER
1002
{
1070
     0
1000
Fog Opt
1070
     0
1070
     0
1040
0.0
1040
1.0
1040
0.0
1040
1.0
1010
0.5
1020
0.5
1030
0.5
1002
}
  0
INSERT
  8
I-HOLD
 62
     9
  5
16A
  2
AVE_RENDER
 10
-56.733414
 20
0.0
 30
-37.452839
1001
AVE_RENDER
1002
{
1070
     0
1000
BG Opt
1070
     0
1070
     1
1010
0.0
1020
0.0
1030
0.0
1010
1.0
1020
0.0
1030
0.0
1010
0.0
1020
1.0
1030
0.0
1010
0.0
1020
0.0
1030
1.0
1040
0.5
1040
0.33
1040
0.0
1000

1070
     1
1000

1070
     1
1070
     1
1040
1.0
1040
1.0
1040
0.0
1040
0.0
1070
     0
1002
}
  0
INSERT
  8
I-HOLD
 62
     1
  5
171
  2
AVE_GLOBAL
 10
-56.733414
 20
0.0
 30
-37.452839
1001
AVE_MATERIAL
1002
{
1000
*GLOBAL*
1000
1
1000
Global finish.
1002
{
1002
}
1002
{
1070
    63
1002
{
1002
{
1010
-1.0
1020
-1.0
1030
-1.0
1002
}
1040
0.1
1000

1040
0.0
1002
{
1002
}
1040
0.0
1002
{
1002
}
1040
0.0
1002
}
1002
{
1002
{
1010
-1.0
1020
-1.0
1030
-1.0
1002
}
1040
0.7
1000

1040
0.0
1002
{
1002
}
1040
0.0
1002
{
1002
}
1040
0.0
1002
}
1002
{
1002
{
1010
-1.0
1020
-1.0
1030
-1.0
1002
}
1040
0.2
1000

1040
0.0
1002
{
1002
}
1040
0.0
1002
{
1002
}
1040
0.0
1002
}
1002
{
1070
     0
1002
{
1070
     1
1002
{
1040
1.0
1040
1.0
1000

1040
0.0
1002
{
1002
}
1040
0.0
1002
{
1002
}
1040
0.0
1002
}
1002
}
1040
1.0
1040
0.0
1040
0.0
1002
}
1002
{
1040
1.0
1040
1.0
1000

1040
0.0
1002
{
1002
}
1040
0.0
1002
{
1002
}
1040
0.0
1002
}
1002
{
1040
0.5
1040
1.0
1000

1040
0.0
1002
{
1002
}
1040
0.0
1002
{
1002
}
1040
0.0
1002
}
1002
{
1070
     0
1040
0.0
1002
{
1002
}
1040
1.0
1002
{
1002
}
1040
0.0
1002
}
1002
{
1040
0.0
1002
{
1002
{
1010
0.0
1020
0.0
1030
0.0
1002
}
1040
1.0
1000

1040
0.0
1002
{
1002
}
1040
0.0
1002
{
1002
}
1040
0.0
1002
}
1002
}
1002
{
1002
{
1070
     1
1002
{
1040
0.0
1040
1.0
1000

1040
0.0
1002
{
1002
}
1040
0.0
1002
{
1002
}
1040
0.0
1002
}
1002
}
1040
0.0
1002
{
1002
}
1010
1.0
1020
0.0
1030
0.0
1010
0.0
1020
1.0
1030
0.0
1010
0.0
1020
0.0
1030
1.0
1070
     0
1002
}
1002
{
1002
{
1040
1.0
1040
1.0
1002
{
1070
     1
1002
{
1040
1.0
1040
1.0
1000

1040
0.0
1002
{
1002
}
1040
0.0
1002
{
1002
}
1040
0.0
1002
}
1002
}
1002
}
1070
     0
1040
0.0
1002
{
1002
}
1002
}
1002
{
1002
}
1002
}
1002
{
1071
        3
1070
     3
1070
     0
1002
{
1070
     2
1070
     0
1070
     0
1040
0.0
1002
}
1070
     0
1070
     2
1002
{
1002
}
1002
}
1002
{
1040
8030.0
1040
190.300003
1040
0.305
1040
228.0
1040
545.0
1040
14.0
1040
17.4
1040
0.456
1002
}
1002
}
  0
INSERT
  8
I-HOLD
 62
     1
  5
AFB
  2
AVE_GLOBAL
 10
526.763671
 20
102.770312
 30
0.0
1001
AVE_MATERIAL
1002
{
1000
*GLOBAL*
1000
1
1000
Global finish.
1002
{
1002
}
1002
{
1070
    63
1002
{
1002
{
1010
-1.0
1020
-1.0
1030
-1.0
1002
}
1040
0.1
1000

1040
0.0
1002
{
1002
}
1040
0.0
1002
{
1002
}
1040
0.0
1002
}
1002
{
1002
{
1010
-1.0
1020
-1.0
1030
-1.0
1002
}
1040
0.7
1000

1040
0.0
1002
{
1002
}
1040
0.0
1002
{
1002
}
1040
0.0
1002
}
1002
{
1002
{
1010
-1.0
1020
-1.0
1030
-1.0
1002
}
1040
0.2
1000

1040
0.0
1002
{
1002
}
1040
0.0
1002
{
1002
}
1040
0.0
1002
}
1002
{
1070
     0
1002
{
1070
     1
1002
{
1040
1.0
1040
1.0
1000

1040
0.0
1002
{
1002
}
1040
0.0
1002
{
1002
}
1040
0.0
1002
}
1002
}
1040
1.0
1040
0.0
1040
0.0
1002
}
1002
{
1040
1.0
1040
1.0
1000

1040
0.0
1002
{
1002
}
1040
0.0
1002
{
1002
}
1040
0.0
1002
}
1002
{
1040
0.5
1040
1.0
1000

1040
0.0
1002
{
1002
}
1040
0.0
1002
{
1002
}
1040
0.0
1002
}
1002
{
1070
     0
1040
0.0
1002
{
1002
}
1040
1.0
1002
{
1002
}
1040
0.0
1002
}
1002
{
1040
0.0
1002
{
1002
{
1010
0.0
1020
0.0
1030
0.0
1002
}
1040
1.0
1000

1040
0.0
1002
{
1002
}
1040
0.0
1002
{
1002
}
1040
0.0
1002
}
1002
}
1002
{
1002
{
1070
     1
1002
{
1040
0.0
1040
1.0
1000

1040
0.0
1002
{
1002
}
1040
0.0
1002
{
1002
}
1040
0.0
1002
}
1002
}
1040
0.0
1002
{
1002
}
1010
1.0
1020
0.0
1030
0.0
1010
0.0
1020
1.0
1030
0.0
1010
0.0
1020
0.0
1030
1.0
1070
     0
1002
}
1002
{
1002
{
1040
1.0
1040
1.0
1002
{
1070
     1
1002
{
1040
1.0
1040
1.0
1000

1040
0.0
1002
{
1002
}
1040
0.0
1002
{
1002
}
1040
0.0
1002
}
1002
}
1002
}
1070
     0
1040
0.0
1002
{
1002
}
1002
}
1002
{
1002
}
1002
}
1002
{
1071
        3
1070
     3
1070
     0
1002
{
1070
     2
1070
     0
1070
     0
1040
0.0
1002
}
1070
     0
1070
     2
1002
{
1002
}
1002
}
1002
{
1040
8030.0
1040
190.300003
1040
0.305
1040
228.0
1040
545.0
1040
14.0
1040
17.4
1040
0.456
1002
}
1002
}
  0
LINE
  8
I-HOLD
  5
2B60
 10
267.67663
 20
-52.452839
 30
146.683453
 11
267.67663
 21
-72.452839
 31
146.683453
  0
LINE
  8
I-HOLD
  5
2B61
 10
267.67663
 20
-72.452839
 30
146.683453
 11
267.67663
 21
-72.452839
 31
143.683453
  0
LINE
  8
I-HOLD
  5
2B65
 10
267.67663
 20
-72.452839
 30
143.683453
 11
267.67663
 21
-77.452839
 31
143.683453
  0
POLYLINE
  8
I-HOLD
  5
2E50
 66
     1
 10
0.0
 20
0.0
 30
0.0
 70
    17
 71
    22
 72
     6
  0
VERTEX
  8
I-HOLD
  5
2E51
 10
267.67663
 20
-79.452839
 30
141.683453
 70
    64
  0
VERTEX
  8
I-HOLD
  5
2E52
 10
267.67663
 20
-79.070873
 30
142.859023
 70
    64
  0
VERTEX
  8
I-HOLD
  5
2E53
 10
267.67663
 20
-78.070873
 30
143.585566
 70
    64
  0
VERTEX
  8
I-HOLD
  5
2E54
 10
267.67663
 20
-76.834805
 30
143.585566
 70
    64
  0
VERTEX
  8
I-HOLD
  5
2E55
 10
267.67663
 20
-75.834805
 30
142.859023
 70
    64
  0
VERTEX
  8
I-HOLD
  5
2E56
 10
267.67663
 20
-75.452839
 30
141.683453
 70
    64
  0
VERTEX
  8
I-HOLD
  5
2E57
 10
273.874747
 20
-80.343994
 30
141.683453
 70
    64
  0
VERTEX
  8
I-HOLD
  5
2E58
 10
273.982359
 20
-79.9775
 30
142.859023
 70
    64
  0
VERTEX
  8
I-HOLD
  5
2E59
 10
274.264091
 20
-79.018007
 30
143.585566
 70
    64
  0
VERTEX
  8
I-HOLD
  5
2E5A
 10
274.612332
 20
-77.832009
 30
143.585566
 70
    64
  0
VERTEX
  8
I-HOLD
  5
2E5B
 10
274.894064
 20
-76.872516
 30
142.859023
 70
    64
  0
VERTEX
  8
I-HOLD
  5
2E5C
 10
275.001677
 20
-76.506022
 30
141.683453
 70
    64
  0
VERTEX
  8
I-HOLD
  5
2E5D
 10
279.570728
 20
-82.945261
 30
141.683453
 70
    64
  0
VERTEX
  8
I-HOLD
  5
2E5E
 10
279.777235
 20
-82.623931
 30
142.859023
 70
    64
  0
VERTEX
  8
I-HOLD
  5
2E5F
 10
280.317875
 20
-81.782678
 30
143.585566
 70
    64
  0
VERTEX
  8
I-HOLD
  5
2E60
 10
280.986144
 20
-80.742831
 30
143.585566
 70
    64
  0
VERTEX
  8
I-HOLD
  5
2E61
 10
281.526785
 20
-79.901578
 30
142.859023
 70
    64
  0
VERTEX
  8
I-HOLD
  5
2E62
 10
281.733292
 20
-79.580247
 30
141.683453
 70
    64
  0
VERTEX
  8
I-HOLD
  5
2E63
 10
284.303121
 20
-87.045903
 30
141.683453
 70
    64
  0
VERTEX
  8
I-HOLD
  5
2E64
 10
284.591792
 20
-86.795769
 30
142.859023
 70
    64
  0
VERTEX
  8
I-HOLD
  5
2E65
 10
285.347541
 20
-86.140908
 30
143.585566
 70
    64
  0
VERTEX
  8
I-HOLD
  5
2E66
 10
286.281699
 20
-85.331455
 30
143.585566
 70
    64
  0
VERTEX
  8
I-HOLD
  5
2E67
 10
287.037449
 20
-84.676595
 30
142.859023
 70
    64
  0
VERTEX
  8
I-HOLD
  5
2E68
 10
287.326119
 20
-84.42646
 30
141.683453
 70
    64
  0
VERTEX
  8
I-HOLD
  5
2E69
 10
287.688534
 20
-92.313709
 30
141.683453
 70
    64
  0
VERTEX
  8
I-HOLD
  5
2E6A
 10
288.035983
 20
-92.155035
 30
142.859023
 70
    64
  0
VERTEX
  8
I-HOLD
  5
2E6B
 10
288.945615
 20
-91.73962
 30
143.585566
 70
    64
  0
VERTEX
  8
I-HOLD
  5
2E6C
 10
290.069982
 20
-91.226138
 30
143.585566
 70
    64
  0
VERTEX
  8
I-HOLD
  5
2E6D
 10
290.979614
 20
-90.810723
 30
142.859023
 70
    64
  0
VERTEX
  8
I-HOLD
  5
2E6E
 10
291.327062
 20
-90.652049
 30
141.683453
 70
    64
  0
VERTEX
  8
I-HOLD
  5
2E6F
 10
289.452702
 20
-98.321913
 30
141.683453
 70
    64
  0
VERTEX
  8
I-HOLD
  5
2E70
 10
289.83078
 20
-98.267553
 30
142.859023
 70
    64
  0
VERTEX
  8
I-HOLD
  5
2E71
 10
290.820602
 20
-98.125239
 30
143.585566
 70
    64
  0
VERTEX
  8
I-HOLD
  5
2E72
 10
292.044088
 20
-97.949328
 30
143.585566
 70
    64
  0
VERTEX
  8
I-HOLD
  5
2E73
 10
293.03391
 20
-97.807013
 30
142.859023
 70
    64
  0
VERTEX
  8
I-HOLD
  5
2E74
 10
293.411988
 20
-97.752653
 30
141.683453
 70
    64
  0
VERTEX
  8
I-HOLD
  5
2E75
 10
289.452702
 20
-104.583766
 30
141.683453
 70
    64
  0
VERTEX
  8
I-HOLD
  5
2E76
 10
289.83078
 20
-104.638125
 30
142.859023
 70
    64
  0
VERTEX
  8
I-HOLD
  5
2E77
 10
290.820602
 20
-104.78044
 30
143.585566
 70
    64
  0
VERTEX
  8
I-HOLD
  5
2E78
 10
292.044088
 20
-104.956351
 30
143.585566
 70
    64
  0
VERTEX
  8
I-HOLD
  5
2E79
 10
293.03391
 20
-105.098666
 30
142.859023
 70
    64
  0
VERTEX
  8
I-HOLD
  5
2E7A
 10
293.411988
 20
-105.153025
 30
141.683453
 70
    64
  0
VERTEX
  8
I-HOLD
  5
2E7B
 10
287.688534
 20
-110.59197
 30
141.683453
 70
    64
  0
VERTEX
  8
I-HOLD
  5
2E7C
 10
288.035983
 20
-110.750644
 30
142.859023
 70
    64
  0
VERTEX
  8
I-HOLD
  5
2E7D
 10
288.945615
 20
-111.166059
 30
143.585566
 70
    64
  0
VERTEX
  8
I-HOLD
  5
2E7E
 10
290.069982
 20
-111.67954
 30
143.585566
 70
    64
  0
VERTEX
  8
I-HOLD
  5
2E7F
 10
290.979614
 20
-112.094955
 30
142.859023
 70
    64
  0
VERTEX
  8
I-HOLD
  5
2E80
 10
291.327062
 20
-112.25363
 30
141.683453
 70
    64
  0
VERTEX
  8
I-HOLD
  5
2E81
 10
284.303121
 20
-115.859775
 30
141.683453
 70
    64
  0
VERTEX
  8
I-HOLD
  5
2E82
 10
284.591792
 20
-116.10991
 30
142.859023
 70
    64
  0
VERTEX
  8
I-HOLD
  5
2E83
 10
285.347541
 20
-116.764771
 30
143.585566
 70
    64
  0
VERTEX
  8
I-HOLD
  5
2E84
 10
286.281699
 20
-117.574223
 30
143.585566
 70
    64
  0
VERTEX
  8
I-HOLD
  5
2E85
 10
287.037449
 20
-118.229084
 30
142.859023
 70
    64
  0
VERTEX
  8
I-HOLD
  5
2E86
 10
287.326119
 20
-118.479218
 30
141.683453
 70
    64
  0
VERTEX
  8
I-HOLD
  5
2E87
 10
279.570728
 20
-119.960417
 30
141.683453
 70
    64
  0
VERTEX
  8
I-HOLD
  5
2E88
 10
279.777235
 20
-120.281747
 30
142.859023
 70
    64
  0
VERTEX
  8
I-HOLD
  5
2E89
 10
280.317875
 20
-121.123001
 30
143.585566
 70
    64
  0
VERTEX
  8
I-HOLD
  5
2E8A
 10
280.986144
 20
-122.162847
 30
143.585566
 70
    64
  0
VERTEX
  8
I-HOLD
  5
2E8B
 10
281.526785
 20
-123.004101
 30
142.859023
 70
    64
  0
VERTEX
  8
I-HOLD
  5
2E8C
 10
281.733292
 20
-123.325431
 30
141.683453
 70
    64
  0
VERTEX
  8
I-HOLD
  5
2E8D
 10
273.874747
 20
-122.561685
 30
141.683453
 70
    64
  0
VERTEX
  8
I-HOLD
  5
2E8E
 10
273.982359
 20
-122.928178
 30
142.859023
 70
    64
  0
VERTEX
  8
I-HOLD
  5
2E8F
 10
274.264091
 20
-123.887671
 30
143.585566
 70
    64
  0
VERTEX
  8
I-HOLD
  5
2E90
 10
274.612332
 20
-125.07367
 30
143.585566
 70
    64
  0
VERTEX
  8
I-HOLD
  5
2E91
 10
274.894064
 20
-126.033163
 30
142.859023
 70
    64
  0
VERTEX
  8
I-HOLD
  5
2E92
 10
275.001677
 20
-126.399657
 30
141.683453
 70
    64
  0
VERTEX
  8
I-HOLD
  5
2E93
 10
267.67663
 20
-123.452839
 30
141.683453
 70
    64
  0
VERTEX
  8
I-HOLD
  5
2E94
 10
267.67663
 20
-123.834805
 30
142.859023
 70
    64
  0
VERTEX
  8
I-HOLD
  5
2E95
 10
267.67663
 20
-124.834805
 30
143.585566
 70
    64
  0
VERTEX
  8
I-HOLD
  5
2E96
 10
267.67663
 20
-126.070873
 30
143.585566
 70
    64
  0
VERTEX
  8
I-HOLD
  5
2E97
 10
267.67663
 20
-127.070873
 30
142.859023
 70
    64
  0
VERTEX
  8
I-HOLD
  5
2E98
 10
267.67663
 20
-127.452839
 30
141.683453
 70
    64
  0
VERTEX
  8
I-HOLD
  5
2E99
 10
261.478514
 20
-122.561685
 30
141.683453
 70
    64
  0
VERTEX
  8
I-HOLD
  5
2E9A
 10
261.370902
 20
-122.928178
 30
142.859023
 70
    64
  0
VERTEX
  8
I-HOLD
  5
2E9B
 10
261.089169
 20
-123.887671
 30
143.585566
 70
    64
  0
VERTEX
  8
I-HOLD
  5
2E9C
 10
260.740929
 20
-125.07367
 30
143.585566
 70
    64
  0
VERTEX
  8
I-HOLD
  5
2E9D
 10
260.459196
 20
-126.033163
 30
142.859023
 70
    64
  0
VERTEX
  8
I-HOLD
  5
2E9E
 10
260.351584
 20
-126.399657
 30
141.683453
 70
    64
  0
VERTEX
  8
I-HOLD
  5
2E9F
 10
255.782532
 20
-119.960417
 30
141.683453
 70
    64
  0
VERTEX
  8
I-HOLD
  5
2EA0
 10
255.576026
 20
-120.281747
 30
142.859023
 70
    64
  0
VERTEX
  8
I-HOLD
  5
2EA1
 10
255.035385
 20
-121.123001
 30
143.585566
 70
    64
  0
VERTEX
  8
I-HOLD
  5
2EA2
 10
254.367116
 20
-122.162847
 30
143.585566
 70
    64
  0
VERTEX
  8
I-HOLD
  5
2EA3
 10
253.826475
 20
-123.004101
 30
142.859023
 70
    64
  0
VERTEX
  8
I-HOLD
  5
2EA4
 10
253.619969
 20
-123.325431
 30
141.683453
 70
    64
  0
VERTEX
  8
I-HOLD
  5
2EA5
 10
251.05014
 20
-115.859775
 30
141.683453
 70
    64
  0
VERTEX
  8
I-HOLD
  5
2EA6
 10
250.761469
 20
-116.10991
 30
142.859023
 70
    64
  0
VERTEX
  8
I-HOLD
  5
2EA7
 10
250.005719
 20
-116.764771
 30
143.585566
 70
    64
  0
VERTEX
  8
I-HOLD
  5
2EA8
 10
249.071562
 20
-117.574223
 30
143.585566
 70
    64
  0
VERTEX
  8
I-HOLD
  5
2EA9
 10
248.315812
 20
-118.229084
 30
142.859023
 70
    64
  0
VERTEX
  8
I-HOLD
  5
2EAA
 10
248.027141
 20
-118.479218
 30
141.683453
 70
    64
  0
VERTEX
  8
I-HOLD
  5
2EAB
 10
247.664726
 20
-110.59197
 30
141.683453
 70
    64
  0
VERTEX
  8
I-HOLD
  5
2EAC
 10
247.317278
 20
-110.750644
 30
142.859023
 70
    64
  0
VERTEX
  8
I-HOLD
  5
2EAD
 10
246.407646
 20
-111.166059
 30
143.585566
 70
    64
  0
VERTEX
  8
I-HOLD
  5
2EAE
 10
245.283279
 20
-111.67954
 30
143.585566
 70
    64
  0
VERTEX
  8
I-HOLD
  5
2EAF
 10
244.373647
 20
-112.094955
 30
142.859023
 70
    64
  0
VERTEX
  8
I-HOLD
  5
2EB0
 10
244.026198
 20
-112.25363
 30
141.683453
 70
    64
  0
VERTEX
  8
I-HOLD
  5
2EB1
 10
245.900559
 20
-104.583766
 30
141.683453
 70
    64
  0
VERTEX
  8
I-HOLD
  5
2EB2
 10
245.52248
 20
-104.638125
 30
142.859023
 70
    64
  0
VERTEX
  8
I-HOLD
  5
2EB3
 10
244.532659
 20
-104.78044
 30
143.585566
 70
    64
  0
VERTEX
  8
I-HOLD
  5
2EB4
 10
243.309172
 20
-104.956351
 30
143.585566
 70
    64
  0
VERTEX
  8
I-HOLD
  5
2EB5
 10
242.319351
 20
-105.098666
 30
142.859023
 70
    64
  0
VERTEX
  8
I-HOLD
  5
2EB6
 10
241.941273
 20
-105.153025
 30
141.683453
 70
    64
  0
VERTEX
  8
I-HOLD
  5
2EB7
 10
245.900559
 20
-98.321913
 30
141.683453
 70
    64
  0
VERTEX
  8
I-HOLD
  5
2EB8
 10
245.52248
 20
-98.267553
 30
142.859023
 70
    64
  0
VERTEX
  8
I-HOLD
  5
2EB9
 10
244.532659
 20
-98.125239
 30
143.585566
 70
    64
  0
VERTEX
  8
I-HOLD
  5
2EBA
 10
243.309172
 20
-97.949328
 30
143.585566
 70
    64
  0
VERTEX
  8
I-HOLD
  5
2EBB
 10
242.319351
 20
-97.807013
 30
142.859023
 70
    64
  0
VERTEX
  8
I-HOLD
  5
2EBC
 10
241.941273
 20
-97.752653
 30
141.683453
 70
    64
  0
VERTEX
  8
I-HOLD
  5
2EBD
 10
247.664726
 20
-92.313709
 30
141.683453
 70
    64
  0
VERTEX
  8
I-HOLD
  5
2EBE
 10
247.317278
 20
-92.155035
 30
142.859023
 70
    64
  0
VERTEX
  8
I-HOLD
  5
2EBF
 10
246.407646
 20
-91.73962
 30
143.585566
 70
    64
  0
VERTEX
  8
I-HOLD
  5
2EC0
 10
245.283279
 20
-91.226138
 30
143.585566
 70
    64
  0
VERTEX
  8
I-HOLD
  5
2EC1
 10
244.373647
 20
-90.810723
 30
142.859023
 70
    64
  0
VERTEX
  8
I-HOLD
  5
2EC2
 10
244.026198
 20
-90.652049
 30
141.683453
 70
    64
  0
VERTEX
  8
I-HOLD
  5
2EC3
 10
251.05014
 20
-87.045903
 30
141.683453
 70
    64
  0
VERTEX
  8
I-HOLD
  5
2EC4
 10
250.761469
 20
-86.795769
 30
142.859023
 70
    64
  0
VERTEX
  8
I-HOLD
  5
2EC5
 10
250.005719
 20
-86.140908
 30
143.585566
 70
    64
  0
VERTEX
  8
I-HOLD
  5
2EC6
 10
249.071562
 20
-85.331455
 30
143.585566
 70
    64
  0
VERTEX
  8
I-HOLD
  5
2EC7
 10
248.315812
 20
-84.676595
 30
142.859023
 70
    64
  0
VERTEX
  8
I-HOLD
  5
2EC8
 10
248.027141
 20
-84.42646
 30
141.683453
 70
    64
  0
VERTEX
  8
I-HOLD
  5
2EC9
 10
255.782532
 20
-82.945261
 30
141.683453
 70
    64
  0
VERTEX
  8
I-HOLD
  5
2ECA
 10
255.576026
 20
-82.623931
 30
142.859023
 70
    64
  0
VERTEX
  8
I-HOLD
  5
2ECB
 10
255.035385
 20
-81.782678
 30
143.585566
 70
    64
  0
VERTEX
  8
I-HOLD
  5
2ECC
 10
254.367116
 20
-80.742831
 30
143.585566
 70
    64
  0
VERTEX
  8
I-HOLD
  5
2ECD
 10
253.826475
 20
-79.901578
 30
142.859023
 70
    64
  0
VERTEX
  8
I-HOLD
  5
2ECE
 10
253.619969
 20
-79.580247
 30
141.683453
 70
    64
  0
VERTEX
  8
I-HOLD
  5
2ECF
 10
261.478514
 20
-80.343994
 30
141.683453
 70
    64
  0
VERTEX
  8
I-HOLD
  5
2ED0
 10
261.370902
 20
-79.9775
 30
142.859023
 70
    64
  0
VERTEX
  8
I-HOLD
  5
2ED1
 10
261.089169
 20
-79.018007
 30
143.585566
 70
    64
  0
VERTEX
  8
I-HOLD
  5
2ED2
 10
260.740929
 20
-77.832009
 30
143.585566
 70
    64
  0
VERTEX
  8
I-HOLD
  5
2ED3
 10
260.459196
 20
-76.872516
 30
142.859023
 70
    64
  0
VERTEX
  8
I-HOLD
  5
2ED4
 10
260.351584
 20
-76.506022
 30
141.683453
 70
    64
  0
SEQEND
  8
I-HOLD
  5
2ED5
  0
POLYLINE
  8
I-HOLD
  5
2ED6
 66
     1
 10
0.0
 20
0.0
 30
0.0
 70
    17
 71
    22
 72
     6
  0
VERTEX
  8
I-HOLD
  5
2ED7
 10
267.67663
 20
-79.452839
 30
141.683453
 70
    64
  0
VERTEX
  8
I-HOLD
  5
2ED8
 10
267.67663
 20
-79.070873
 30
140.507882
 70
    64
  0
VERTEX
  8
I-HOLD
  5
2ED9
 10
267.67663
 20
-78.070873
 30
139.78134
 70
    64
  0
VERTEX
  8
I-HOLD
  5
2EDA
 10
267.67663
 20
-76.834805
 30
139.78134
 70
    64
  0
VERTEX
  8
I-HOLD
  5
2EDB
 10
267.67663
 20
-75.834805
 30
140.507882
 70
    64
  0
VERTEX
  8
I-HOLD
  5
2EDC
 10
267.67663
 20
-75.452839
 30
141.683453
 70
    64
  0
VERTEX
  8
I-HOLD
  5
2EDD
 10
273.874747
 20
-80.343994
 30
141.683453
 70
    64
  0
VERTEX
  8
I-HOLD
  5
2EDE
 10
273.982359
 20
-79.9775
 30
140.507882
 70
    64
  0
VERTEX
  8
I-HOLD
  5
2EDF
 10
274.264091
 20
-79.018007
 30
139.78134
 70
    64
  0
VERTEX
  8
I-HOLD
  5
2EE0
 10
274.612332
 20
-77.832009
 30
139.78134
 70
    64
  0
VERTEX
  8
I-HOLD
  5
2EE1
 10
274.894064
 20
-76.872516
 30
140.507882
 70
    64
  0
VERTEX
  8
I-HOLD
  5
2EE2
 10
275.001677
 20
-76.506022
 30
141.683453
 70
    64
  0
VERTEX
  8
I-HOLD
  5
2EE3
 10
279.570728
 20
-82.945261
 30
141.683453
 70
    64
  0
VERTEX
  8
I-HOLD
  5
2EE4
 10
279.777235
 20
-82.623931
 30
140.507882
 70
    64
  0
VERTEX
  8
I-HOLD
  5
2EE5
 10
280.317875
 20
-81.782678
 30
139.78134
 70
    64
  0
VERTEX
  8
I-HOLD
  5
2EE6
 10
280.986144
 20
-80.742831
 30
139.78134
 70
    64
  0
VERTEX
  8
I-HOLD
  5
2EE7
 10
281.526785
 20
-79.901578
 30
140.507882
 70
    64
  0
VERTEX
  8
I-HOLD
  5
2EE8
 10
281.733292
 20
-79.580247
 30
141.683453
 70
    64
  0
VERTEX
  8
I-HOLD
  5
2EE9
 10
284.303121
 20
-87.045903
 30
141.683453
 70
    64
  0
VERTEX
  8
I-HOLD
  5
2EEA
 10
284.591792
 20
-86.795769
 30
140.507882
 70
    64
  0
VERTEX
  8
I-HOLD
  5
2EEB
 10
285.347541
 20
-86.140908
 30
139.78134
 70
    64
  0
VERTEX
  8
I-HOLD
  5
2EEC
 10
286.281699
 20
-85.331455
 30
139.78134
 70
    64
  0
VERTEX
  8
I-HOLD
  5
2EED
 10
287.037449
 20
-84.676595
 30
140.507882
 70
    64
  0
VERTEX
  8
I-HOLD
  5
2EEE
 10
287.326119
 20
-84.42646
 30
141.683453
 70
    64
  0
VERTEX
  8
I-HOLD
  5
2EEF
 10
287.688534
 20
-92.313709
 30
141.683453
 70
    64
  0
VERTEX
  8
I-HOLD
  5
2EF0
 10
288.035983
 20
-92.155035
 30
140.507882
 70
    64
  0
VERTEX
  8
I-HOLD
  5
2EF1
 10
288.945615
 20
-91.73962
 30
139.78134
 70
    64
  0
VERTEX
  8
I-HOLD
  5
2EF2
 10
290.069982
 20
-91.226138
 30
139.78134
 70
    64
  0
VERTEX
  8
I-HOLD
  5
2EF3
 10
290.979614
 20
-90.810723
 30
140.507882
 70
    64
  0
VERTEX
  8
I-HOLD
  5
2EF4
 10
291.327062
 20
-90.652049
 30
141.683453
 70
    64
  0
VERTEX
  8
I-HOLD
  5
2EF5
 10
289.452702
 20
-98.321913
 30
141.683453
 70
    64
  0
VERTEX
  8
I-HOLD
  5
2EF6
 10
289.83078
 20
-98.267553
 30
140.507882
 70
    64
  0
VERTEX
  8
I-HOLD
  5
2EF7
 10
290.820602
 20
-98.125239
 30
139.78134
 70
    64
  0
VERTEX
  8
I-HOLD
  5
2EF8
 10
292.044088
 20
-97.949328
 30
139.78134
 70
    64
  0
VERTEX
  8
I-HOLD
  5
2EF9
 10
293.03391
 20
-97.807013
 30
140.507882
 70
    64
  0
VERTEX
  8
I-HOLD
  5
2EFA
 10
293.411988
 20
-97.752653
 30
141.683453
 70
    64
  0
VERTEX
  8
I-HOLD
  5
2EFB
 10
289.452702
 20
-104.583766
 30
141.683453
 70
    64
  0
VERTEX
  8
I-HOLD
  5
2EFC
 10
289.83078
 20
-104.638125
 30
140.507882
 70
    64
  0
VERTEX
  8
I-HOLD
  5
2EFD
 10
290.820602
 20
-104.78044
 30
139.78134
 70
    64
  0
VERTEX
  8
I-HOLD
  5
2EFE
 10
292.044088
 20
-104.956351
 30
139.78134
 70
    64
  0
VERTEX
  8
I-HOLD
  5
2EFF
 10
293.03391
 20
-105.098666
 30
140.507882
 70
    64
  0
VERTEX
  8
I-HOLD
  5
2F00
 10
293.411988
 20
-105.153025
 30
141.683453
 70
    64
  0
VERTEX
  8
I-HOLD
  5
2F01
 10
287.688534
 20
-110.59197
 30
141.683453
 70
    64
  0
VERTEX
  8
I-HOLD
  5
2F02
 10
288.035983
 20
-110.750644
 30
140.507882
 70
    64
  0
VERTEX
  8
I-HOLD
  5
2F03
 10
288.945615
 20
-111.166059
 30
139.78134
 70
    64
  0
VERTEX
  8
I-HOLD
  5
2F04
 10
290.069982
 20
-111.67954
 30
139.78134
 70
    64
  0
VERTEX
  8
I-HOLD
  5
2F05
 10
290.979614
 20
-112.094955
 30
140.507882
 70
    64
  0
VERTEX
  8
I-HOLD
  5
2F06
 10
291.327062
 20
-112.25363
 30
141.683453
 70
    64
  0
VERTEX
  8
I-HOLD
  5
2F07
 10
284.303121
 20
-115.859775
 30
141.683453
 70
    64
  0
VERTEX
  8
I-HOLD
  5
2F08
 10
284.591792
 20
-116.10991
 30
140.507882
 70
    64
  0
VERTEX
  8
I-HOLD
  5
2F09
 10
285.347541
 20
-116.764771
 30
139.78134
 70
    64
  0
VERTEX
  8
I-HOLD
  5
2F0A
 10
286.281699
 20
-117.574223
 30
139.78134
 70
    64
  0
VERTEX
  8
I-HOLD
  5
2F0B
 10
287.037449
 20
-118.229084
 30
140.507882
 70
    64
  0
VERTEX
  8
I-HOLD
  5
2F0C
 10
287.326119
 20
-118.479218
 30
141.683453
 70
    64
  0
VERTEX
  8
I-HOLD
  5
2F0D
 10
279.570728
 20
-119.960417
 30
141.683453
 70
    64
  0
VERTEX
  8
I-HOLD
  5
2F0E
 10
279.777235
 20
-120.281747
 30
140.507882
 70
    64
  0
VERTEX
  8
I-HOLD
  5
2F0F
 10
280.317875
 20
-121.123001
 30
139.78134
 70
    64
  0
VERTEX
  8
I-HOLD
  5
2F10
 10
280.986144
 20
-122.162847
 30
139.78134
 70
    64
  0
VERTEX
  8
I-HOLD
  5
2F11
 10
281.526785
 20
-123.004101
 30
140.507882
 70
    64
  0
VERTEX
  8
I-HOLD
  5
2F12
 10
281.733292
 20
-123.325431
 30
141.683453
 70
    64
  0
VERTEX
  8
I-HOLD
  5
2F13
 10
273.874747
 20
-122.561685
 30
141.683453
 70
    64
  0
VERTEX
  8
I-HOLD
  5
2F14
 10
273.982359
 20
-122.928178
 30
140.507882
 70
    64
  0
VERTEX
  8
I-HOLD
  5
2F15
 10
274.264091
 20
-123.887671
 30
139.78134
 70
    64
  0
VERTEX
  8
I-HOLD
  5
2F16
 10
274.612332
 20
-125.07367
 30
139.78134
 70
    64
  0
VERTEX
  8
I-HOLD
  5
2F17
 10
274.894064
 20
-126.033163
 30
140.507882
 70
    64
  0
VERTEX
  8
I-HOLD
  5
2F18
 10
275.001677
 20
-126.399657
 30
141.683453
 70
    64
  0
VERTEX
  8
I-HOLD
  5
2F19
 10
267.67663
 20
-123.452839
 30
141.683453
 70
    64
  0
VERTEX
  8
I-HOLD
  5
2F1A
 10
267.67663
 20
-123.834805
 30
140.507882
 70
    64
  0
VERTEX
  8
I-HOLD
  5
2F1B
 10
267.67663
 20
-124.834805
 30
139.78134
 70
    64
  0
VERTEX
  8
I-HOLD
  5
2F1C
 10
267.67663
 20
-126.070873
 30
139.78134
 70
    64
  0
VERTEX
  8
I-HOLD
  5
2F1D
 10
267.67663
 20
-127.070873
 30
140.507882
 70
    64
  0
VERTEX
  8
I-HOLD
  5
2F1E
 10
267.67663
 20
-127.452839
 30
141.683453
 70
    64
  0
VERTEX
  8
I-HOLD
  5
2F1F
 10
261.478514
 20
-122.561685
 30
141.683453
 70
    64
  0
VERTEX
  8
I-HOLD
  5
2F20
 10
261.370902
 20
-122.928178
 30
140.507882
 70
    64
  0
VERTEX
  8
I-HOLD
  5
2F21
 10
261.089169
 20
-123.887671
 30
139.78134
 70
    64
  0
VERTEX
  8
I-HOLD
  5
2F22
 10
260.740929
 20
-125.07367
 30
139.78134
 70
    64
  0
VERTEX
  8
I-HOLD
  5
2F23
 10
260.459196
 20
-126.033163
 30
140.507882
 70
    64
  0
VERTEX
  8
I-HOLD
  5
2F24
 10
260.351584
 20
-126.399657
 30
141.683453
 70
    64
  0
VERTEX
  8
I-HOLD
  5
2F25
 10
255.782532
 20
-119.960417
 30
141.683453
 70
    64
  0
VERTEX
  8
I-HOLD
  5
2F26
 10
255.576026
 20
-120.281747
 30
140.507882
 70
    64
  0
VERTEX
  8
I-HOLD
  5
2F27
 10
255.035385
 20
-121.123001
 30
139.78134
 70
    64
  0
VERTEX
  8
I-HOLD
  5
2F28
 10
254.367116
 20
-122.162847
 30
139.78134
 70
    64
  0
VERTEX
  8
I-HOLD
  5
2F29
 10
253.826475
 20
-123.004101
 30
140.507882
 70
    64
  0
VERTEX
  8
I-HOLD
  5
2F2A
 10
253.619969
 20
-123.325431
 30
141.683453
 70
    64
  0
VERTEX
  8
I-HOLD
  5
2F2B
 10
251.05014
 20
-115.859775
 30
141.683453
 70
    64
  0
VERTEX
  8
I-HOLD
  5
2F2C
 10
250.761469
 20
-116.10991
 30
140.507882
 70
    64
  0
VERTEX
  8
I-HOLD
  5
2F2D
 10
250.005719
 20
-116.764771
 30
139.78134
 70
    64
  0
VERTEX
  8
I-HOLD
  5
2F2E
 10
249.071562
 20
-117.574223
 30
139.78134
 70
    64
  0
VERTEX
  8
I-HOLD
  5
2F2F
 10
248.315812
 20
-118.229084
 30
140.507882
 70
    64
  0
VERTEX
  8
I-HOLD
  5
2F30
 10
248.027141
 20
-118.479218
 30
141.683453
 70
    64
  0
VERTEX
  8
I-HOLD
  5
2F31
 10
247.664726
 20
-110.59197
 30
141.683453
 70
    64
  0
VERTEX
  8
I-HOLD
  5
2F32
 10
247.317278
 20
-110.750644
 30
140.507882
 70
    64
  0
VERTEX
  8
I-HOLD
  5
2F33
 10
246.407646
 20
-111.166059
 30
139.78134
 70
    64
  0
VERTEX
  8
I-HOLD
  5
2F34
 10
245.283279
 20
-111.67954
 30
139.78134
 70
    64
  0
VERTEX
  8
I-HOLD
  5
2F35
 10
244.373647
 20
-112.094955
 30
140.507882
 70
    64
  0
VERTEX
  8
I-HOLD
  5
2F36
 10
244.026198
 20
-112.25363
 30
141.683453
 70
    64
  0
VERTEX
  8
I-HOLD
  5
2F37
 10
245.900559
 20
-104.583766
 30
141.683453
 70
    64
  0
VERTEX
  8
I-HOLD
  5
2F38
 10
245.52248
 20
-104.638125
 30
140.507882
 70
    64
  0
VERTEX
  8
I-HOLD
  5
2F39
 10
244.532659
 20
-104.78044
 30
139.78134
 70
    64
  0
VERTEX
  8
I-HOLD
  5
2F3A
 10
243.309172
 20
-104.956351
 30
139.78134
 70
    64
  0
VERTEX
  8
I-HOLD
  5
2F3B
 10
242.319351
 20
-105.098666
 30
140.507882
 70
    64
  0
VERTEX
  8
I-HOLD
  5
2F3C
 10
241.941273
 20
-105.153025
 30
141.683453
 70
    64
  0
VERTEX
  8
I-HOLD
  5
2F3D
 10
245.900559
 20
-98.321913
 30
141.683453
 70
    64
  0
VERTEX
  8
I-HOLD
  5
2F3E
 10
245.52248
 20
-98.267553
 30
140.507882
 70
    64
  0
VERTEX
  8
I-HOLD
  5
2F3F
 10
244.532659
 20
-98.125239
 30
139.78134
 70
    64
  0
VERTEX
  8
I-HOLD
  5
2F40
 10
243.309172
 20
-97.949328
 30
139.78134
 70
    64
  0
VERTEX
  8
I-HOLD
  5
2F41
 10
242.319351
 20
-97.807013
 30
140.507882
 70
    64
  0
VERTEX
  8
I-HOLD
  5
2F42
 10
241.941273
 20
-97.752653
 30
141.683453
 70
    64
  0
VERTEX
  8
I-HOLD
  5
2F43
 10
247.664726
 20
-92.313709
 30
141.683453
 70
    64
  0
VERTEX
  8
I-HOLD
  5
2F44
 10
247.317278
 20
-92.155035
 30
140.507882
 70
    64
  0
VERTEX
  8
I-HOLD
  5
2F45
 10
246.407646
 20
-91.73962
 30
139.78134
 70
    64
  0
VERTEX
  8
I-HOLD
  5
2F46
 10
245.283279
 20
-91.226138
 30
139.78134
 70
    64
  0
VERTEX
  8
I-HOLD
  5
2F47
 10
244.373647
 20
-90.810723
 30
140.507882
 70
    64
  0
VERTEX
  8
I-HOLD
  5
2F48
 10
244.026198
 20
-90.652049
 30
141.683453
 70
    64
  0
VERTEX
  8
I-HOLD
  5
2F49
 10
251.05014
 20
-87.045903
 30
141.683453
 70
    64
  0
VERTEX
  8
I-HOLD
  5
2F4A
 10
250.761469
 20
-86.795769
 30
140.507882
 70
    64
  0
VERTEX
  8
I-HOLD
  5
2F4B
 10
250.005719
 20
-86.140908
 30
139.78134
 70
    64
  0
VERTEX
  8
I-HOLD
  5
2F4C
 10
249.071562
 20
-85.331455
 30
139.78134
 70
    64
  0
VERTEX
  8
I-HOLD
  5
2F4D
 10
248.315812
 20
-84.676595
 30
140.507882
 70
    64
  0
VERTEX
  8
I-HOLD
  5
2F4E
 10
248.027141
 20
-84.42646
 30
141.683453
 70
    64
  0
VERTEX
  8
I-HOLD
  5
2F4F
 10
255.782532
 20
-82.945261
 30
141.683453
 70
    64
  0
VERTEX
  8
I-HOLD
  5
2F50
 10
255.576026
 20
-82.623931
 30
140.507882
 70
    64
  0
VERTEX
  8
I-HOLD
  5
2F51
 10
255.035385
 20
-81.782678
 30
139.78134
 70
    64
  0
VERTEX
  8
I-HOLD
  5
2F52
 10
254.367116
 20
-80.742831
 30
139.78134
 70
    64
  0
VERTEX
  8
I-HOLD
  5
2F53
 10
253.826475
 20
-79.901578
 30
140.507882
 70
    64
  0
VERTEX
  8
I-HOLD
  5
2F54
 10
253.619969
 20
-79.580247
 30
141.683453
 70
    64
  0
VERTEX
  8
I-HOLD
  5
2F55
 10
261.478514
 20
-80.343994
 30
141.683453
 70
    64
  0
VERTEX
  8
I-HOLD
  5
2F56
 10
261.370902
 20
-79.9775
 30
140.507882
 70
    64
  0
VERTEX
  8
I-HOLD
  5
2F57
 10
261.089169
 20
-79.018007
 30
139.78134
 70
    64
  0
VERTEX
  8
I-HOLD
  5
2F58
 10
260.740929
 20
-77.832009
 30
139.78134
 70
    64
  0
VERTEX
  8
I-HOLD
  5
2F59
 10
260.459196
 20
-76.872516
 30
140.507882
 70
    64
  0
VERTEX
  8
I-HOLD
  5
2F5A
 10
260.351584
 20
-76.506022
 30
141.683453
 70
    64
  0
SEQEND
  8
I-HOLD
  5
2F5B
  0
POLYLINE
  8
I-HOLD
  5
2F5C
 66
     1
 10
0.0
 20
0.0
 30
0.0
 70
    17
 71
    22
 72
     3
  0
VERTEX
  8
I-HOLD
  5
2F5D
 10
267.67663
 20
-72.452839
 30
143.683453
 70
    64
  0
VERTEX
  8
I-HOLD
  5
2F5E
 10
267.67663
 20
-74.952839
 30
143.683453
 70
    64
  0
VERTEX
  8
I-HOLD
  5
2F5F
 10
267.67663
 20
-77.452839
 30
143.683453
 70
    64
  0
VERTEX
  8
I-HOLD
  5
2F60
 10
268.240095
 20
-72.452839
 30
143.602439
 70
    64
  0
VERTEX
  8
I-HOLD
  5
2F61
 10
268.240095
 20
-74.952839
 30
143.602439
 70
    64
  0
VERTEX
  8
I-HOLD
  5
2F62
 10
268.240095
 20
-77.452839
 30
143.602439
 70
    64
  0
VERTEX
  8
I-HOLD
  5
2F63
 10
268.757912
 20
-72.452839
 30
143.36596
 70
    64
  0
VERTEX
  8
I-HOLD
  5
2F64
 10
268.757912
 20
-74.952839
 30
143.36596
 70
    64
  0
VERTEX
  8
I-HOLD
  5
2F65
 10
268.757912
 20
-77.452839
 30
143.36596
 70
    64
  0
VERTEX
  8
I-HOLD
  5
2F66
 10
269.188129
 20
-72.452839
 30
142.993174
 70
    64
  0
VERTEX
  8
I-HOLD
  5
2F67
 10
269.188129
 20
-74.952839
 30
142.993174
 70
    64
  0
VERTEX
  8
I-HOLD
  5
2F68
 10
269.188129
 20
-77.452839
 30
142.993174
 70
    64
  0
VERTEX
  8
I-HOLD
  5
2F69
 10
269.495894
 20
-72.452839
 30
142.514283
 70
    64
  0
VERTEX
  8
I-HOLD
  5
2F6A
 10
269.495894
 20
-74.952839
 30
142.514283
 70
    64
  0
VERTEX
  8
I-HOLD
  5
2F6B
 10
269.495894
 20
-77.452839
 30
142.514283
 70
    64
  0
VERTEX
  8
I-HOLD
  5
2F6C
 10
269.656273
 20
-72.452839
 30
141.968083
 70
    64
  0
VERTEX
  8
I-HOLD
  5
2F6D
 10
269.656273
 20
-74.952839
 30
141.968083
 70
    64
  0
VERTEX
  8
I-HOLD
  5
2F6E
 10
269.656273
 20
-77.452839
 30
141.968083
 70
    64
  0
VERTEX
  8
I-HOLD
  5
2F6F
 10
269.656273
 20
-72.452839
 30
141.398823
 70
    64
  0
VERTEX
  8
I-HOLD
  5
2F70
 10
269.656273
 20
-74.952839
 30
141.398823
 70
    64
  0
VERTEX
  8
I-HOLD
  5
2F71
 10
269.656273
 20
-77.452839
 30
141.398823
 70
    64
  0
VERTEX
  8
I-HOLD
  5
2F72
 10
269.495894
 20
-72.452839
 30
140.852623
 70
    64
  0
VERTEX
  8
I-HOLD
  5
2F73
 10
269.495894
 20
-74.952839
 30
140.852623
 70
    64
  0
VERTEX
  8
I-HOLD
  5
2F74
 10
269.495894
 20
-77.452839
 30
140.852623
 70
    64
  0
VERTEX
  8
I-HOLD
  5
2F75
 10
269.188129
 20
-72.452839
 30
140.373731
 70
    64
  0
VERTEX
  8
I-HOLD
  5
2F76
 10
269.188129
 20
-74.952839
 30
140.373731
 70
    64
  0
VERTEX
  8
I-HOLD
  5
2F77
 10
269.188129
 20
-77.452839
 30
140.373731
 70
    64
  0
VERTEX
  8
I-HOLD
  5
2F78
 10
268.757912
 20
-72.452839
 30
140.000946
 70
    64
  0
VERTEX
  8
I-HOLD
  5
2F79
 10
268.757912
 20
-74.952839
 30
140.000946
 70
    64
  0
VERTEX
  8
I-HOLD
  5
2F7A
 10
268.757912
 20
-77.452839
 30
140.000946
 70
    64
  0
VERTEX
  8
I-HOLD
  5
2F7B
 10
268.240095
 20
-72.452839
 30
139.764467
 70
    64
  0
VERTEX
  8
I-HOLD
  5
2F7C
 10
268.240095
 20
-74.952839
 30
139.764467
 70
    64
  0
VERTEX
  8
I-HOLD
  5
2F7D
 10
268.240095
 20
-77.452839
 30
139.764467
 70
    64
  0
VERTEX
  8
I-HOLD
  5
2F7E
 10
267.67663
 20
-72.452839
 30
139.683453
 70
    64
  0
VERTEX
  8
I-HOLD
  5
2F7F
 10
267.67663
 20
-74.952839
 30
139.683453
 70
    64
  0
VERTEX
  8
I-HOLD
  5
2F80
 10
267.67663
 20
-77.452839
 30
139.683453
 70
    64
  0
VERTEX
  8
I-HOLD
  5
2F81
 10
267.113165
 20
-72.452839
 30
139.764467
 70
    64
  0
VERTEX
  8
I-HOLD
  5
2F82
 10
267.113165
 20
-74.952839
 30
139.764467
 70
    64
  0
VERTEX
  8
I-HOLD
  5
2F83
 10
267.113165
 20
-77.452839
 30
139.764467
 70
    64
  0
VERTEX
  8
I-HOLD
  5
2F84
 10
266.595349
 20
-72.452839
 30
140.000946
 70
    64
  0
VERTEX
  8
I-HOLD
  5
2F85
 10
266.595349
 20
-74.952839
 30
140.000946
 70
    64
  0
VERTEX
  8
I-HOLD
  5
2F86
 10
266.595349
 20
-77.452839
 30
140.000946
 70
    64
  0
VERTEX
  8
I-HOLD
  5
2F87
 10
266.165131
 20
-72.452839
 30
140.373731
 70
    64
  0
VERTEX
  8
I-HOLD
  5
2F88
 10
266.165131
 20
-74.952839
 30
140.373731
 70
    64
  0
VERTEX
  8
I-HOLD
  5
2F89
 10
266.165131
 20
-77.452839
 30
140.373731
 70
    64
  0
VERTEX
  8
I-HOLD
  5
2F8A
 10
265.857366
 20
-72.452839
 30
140.852623
 70
    64
  0
VERTEX
  8
I-HOLD
  5
2F8B
 10
265.857366
 20
-74.952839
 30
140.852623
 70
    64
  0
VERTEX
  8
I-HOLD
  5
2F8C
 10
265.857366
 20
-77.452839
 30
140.852623
 70
    64
  0
VERTEX
  8
I-HOLD
  5
2F8D
 10
265.696987
 20
-72.452839
 30
141.398823
 70
    64
  0
VERTEX
  8
I-HOLD
  5
2F8E
 10
265.696987
 20
-74.952839
 30
141.398823
 70
    64
  0
VERTEX
  8
I-HOLD
  5
2F8F
 10
265.696987
 20
-77.452839
 30
141.398823
 70
    64
  0
VERTEX
  8
I-HOLD
  5
2F90
 10
265.696987
 20
-72.452839
 30
141.968083
 70
    64
  0
VERTEX
  8
I-HOLD
  5
2F91
 10
265.696987
 20
-74.952839
 30
141.968083
 70
    64
  0
VERTEX
  8
I-HOLD
  5
2F92
 10
265.696987
 20
-77.452839
 30
141.968083
 70
    64
  0
VERTEX
  8
I-HOLD
  5
2F93
 10
265.857366
 20
-72.452839
 30
142.514283
 70
    64
  0
VERTEX
  8
I-HOLD
  5
2F94
 10
265.857366
 20
-74.952839
 30
142.514283
 70
    64
  0
VERTEX
  8
I-HOLD
  5
2F95
 10
265.857366
 20
-77.452839
 30
142.514283
 70
    64
  0
VERTEX
  8
I-HOLD
  5
2F96
 10
266.165131
 20
-72.452839
 30
142.993174
 70
    64
  0
VERTEX
  8
I-HOLD
  5
2F97
 10
266.165131
 20
-74.952839
 30
142.993174
 70
    64
  0
VERTEX
  8
I-HOLD
  5
2F98
 10
266.165131
 20
-77.452839
 30
142.993174
 70
    64
  0
VERTEX
  8
I-HOLD
  5
2F99
 10
266.595349
 20
-72.452839
 30
143.36596
 70
    64
  0
VERTEX
  8
I-HOLD
  5
2F9A
 10
266.595349
 20
-74.952839
 30
143.36596
 70
    64
  0
VERTEX
  8
I-HOLD
  5
2F9B
 10
266.595349
 20
-77.452839
 30
143.36596
 70
    64
  0
VERTEX
  8
I-HOLD
  5
2F9C
 10
267.113165
 20
-72.452839
 30
143.602439
 70
    64
  0
VERTEX
  8
I-HOLD
  5
2F9D
 10
267.113165
 20
-74.952839
 30
143.602439
 70
    64
  0
VERTEX
  8
I-HOLD
  5
2F9E
 10
267.113165
 20
-77.452839
 30
143.602439
 70
    64
  0
SEQEND
  8
I-HOLD
  5
2F9F
  0
POLYLINE
  8
I-HOLD
  5
2FA0
 66
     1
 10
0.0
 20
0.0
 30
0.0
 70
    17
 71
    22
 72
     3
  0
VERTEX
  8
I-HOLD
  5
2FA1
 10
267.67663
 20
-72.452839
 30
146.683453
 70
    64
  0
VERTEX
  8
I-HOLD
  5
2FA2
 10
267.67663
 20
-72.452839
 30
145.183453
 70
    64
  0
VERTEX
  8
I-HOLD
  5
2FA3
 10
267.67663
 20
-72.452839
 30
143.683453
 70
    64
  0
VERTEX
  8
I-HOLD
  5
2FA4
 10
269.085293
 20
-72.452839
 30
146.480918
 70
    64
  0
VERTEX
  8
I-HOLD
  5
2FA5
 10
268.662694
 20
-72.452839
 30
145.041678
 70
    64
  0
VERTEX
  8
I-HOLD
  5
2FA6
 10
268.240095
 20
-72.452839
 30
143.602439
 70
    64
  0
VERTEX
  8
I-HOLD
  5
2FA7
 10
270.379834
 20
-72.452839
 30
145.889721
 70
    64
  0
VERTEX
  8
I-HOLD
  5
2FA8
 10
269.568873
 20
-72.452839
 30
144.62784
 70
    64
  0
VERTEX
  8
I-HOLD
  5
2FA9
 10
268.757912
 20
-72.452839
 30
143.36596
 70
    64
  0
VERTEX
  8
I-HOLD
  5
2FAA
 10
271.455378
 20
-72.452839
 30
144.957757
 70
    64
  0
VERTEX
  8
I-HOLD
  5
2FAB
 10
270.321754
 20
-72.452839
 30
143.975465
 70
    64
  0
VERTEX
  8
I-HOLD
  5
2FAC
 10
269.188129
 20
-72.452839
 30
142.993174
 70
    64
  0
VERTEX
  8
I-HOLD
  5
2FAD
 10
272.22479
 20
-72.452839
 30
143.760528
 70
    64
  0
VERTEX
  8
I-HOLD
  5
2FAE
 10
270.860342
 20
-72.452839
 30
143.137405
 70
    64
  0
VERTEX
  8
I-HOLD
  5
2FAF
 10
269.495894
 20
-72.452839
 30
142.514283
 70
    64
  0
VERTEX
  8
I-HOLD
  5
2FB0
 10
272.625737
 20
-72.452839
 30
142.395027
 70
    64
  0
VERTEX
  8
I-HOLD
  5
2FB1
 10
271.141005
 20
-72.452839
 30
142.181555
 70
    64
  0
VERTEX
  8
I-HOLD
  5
2FB2
 10
269.656273
 20
-72.452839
 30
141.968083
 70
    64
  0
VERTEX
  8
I-HOLD
  5
2FB3
 10
272.625737
 20
-72.452839
 30
140.971879
 70
    64
  0
VERTEX
  8
I-HOLD
  5
2FB4
 10
271.141005
 20
-72.452839
 30
141.185351
 70
    64
  0
VERTEX
  8
I-HOLD
  5
2FB5
 10
269.656273
 20
-72.452839
 30
141.398823
 70
    64
  0
VERTEX
  8
I-HOLD
  5
2FB6
 10
272.22479
 20
-72.452839
 30
139.606378
 70
    64
  0
VERTEX
  8
I-HOLD
  5
2FB7
 10
270.860342
 20
-72.452839
 30
140.2295
 70
    64
  0
VERTEX
  8
I-HOLD
  5
2FB8
 10
269.495894
 20
-72.452839
 30
140.852623
 70
    64
  0
VERTEX
  8
I-HOLD
  5
2FB9
 10
271.455378
 20
-72.452839
 30
138.409149
 70
    64
  0
VERTEX
  8
I-HOLD
  5
2FBA
 10
270.321754
 20
-72.452839
 30
139.39144
 70
    64
  0
VERTEX
  8
I-HOLD
  5
2FBB
 10
269.188129
 20
-72.452839
 30
140.373731
 70
    64
  0
VERTEX
  8
I-HOLD
  5
2FBC
 10
270.379834
 20
-72.452839
 30
137.477185
 70
    64
  0
VERTEX
  8
I-HOLD
  5
2FBD
 10
269.568873
 20
-72.452839
 30
138.739066
 70
    64
  0
VERTEX
  8
I-HOLD
  5
2FBE
 10
268.757912
 20
-72.452839
 30
140.000946
 70
    64
  0
VERTEX
  8
I-HOLD
  5
2FBF
 10
269.085293
 20
-72.452839
 30
136.885988
 70
    64
  0
VERTEX
  8
I-HOLD
  5
2FC0
 10
268.662694
 20
-72.452839
 30
138.325228
 70
    64
  0
VERTEX
  8
I-HOLD
  5
2FC1
 10
268.240095
 20
-72.452839
 30
139.764467
 70
    64
  0
VERTEX
  8
I-HOLD
  5
2FC2
 10
267.67663
 20
-72.452839
 30
136.683453
 70
    64
  0
VERTEX
  8
I-HOLD
  5
2FC3
 10
267.67663
 20
-72.452839
 30
138.183453
 70
    64
  0
VERTEX
  8
I-HOLD
  5
2FC4
 10
267.67663
 20
-72.452839
 30
139.683453
 70
    64
  0
VERTEX
  8
I-HOLD
  5
2FC5
 10
266.267967
 20
-72.452839
 30
136.885988
 70
    64
  0
VERTEX
  8
I-HOLD
  5
2FC6
 10
266.690566
 20
-72.452839
 30
138.325228
 70
    64
  0
VERTEX
  8
I-HOLD
  5
2FC7
 10
267.113165
 20
-72.452839
 30
139.764467
 70
    64
  0
VERTEX
  8
I-HOLD
  5
2FC8
 10
264.973426
 20
-72.452839
 30
137.477185
 70
    64
  0
VERTEX
  8
I-HOLD
  5
2FC9
 10
265.784387
 20
-72.452839
 30
138.739066
 70
    64
  0
VERTEX
  8
I-HOLD
  5
2FCA
 10
266.595349
 20
-72.452839
 30
140.000946
 70
    64
  0
VERTEX
  8
I-HOLD
  5
2FCB
 10
263.897882
 20
-72.452839
 30
138.409149
 70
    64
  0
VERTEX
  8
I-HOLD
  5
2FCC
 10
265.031507
 20
-72.452839
 30
139.39144
 70
    64
  0
VERTEX
  8
I-HOLD
  5
2FCD
 10
266.165131
 20
-72.452839
 30
140.373731
 70
    64
  0
VERTEX
  8
I-HOLD
  5
2FCE
 10
263.12847
 20
-72.452839
 30
139.606378
 70
    64
  0
VERTEX
  8
I-HOLD
  5
2FCF
 10
264.492918
 20
-72.452839
 30
140.2295
 70
    64
  0
VERTEX
  8
I-HOLD
  5
2FD0
 10
265.857366
 20
-72.452839
 30
140.852623
 70
    64
  0
VERTEX
  8
I-HOLD
  5
2FD1
 10
262.727523
 20
-72.452839
 30
140.971879
 70
    64
  0
VERTEX
  8
I-HOLD
  5
2FD2
 10
264.212255
 20
-72.452839
 30
141.185351
 70
    64
  0
VERTEX
  8
I-HOLD
  5
2FD3
 10
265.696987
 20
-72.452839
 30
141.398823
 70
    64
  0
VERTEX
  8
I-HOLD
  5
2FD4
 10
262.727523
 20
-72.452839
 30
142.395027
 70
    64
  0
VERTEX
  8
I-HOLD
  5
2FD5
 10
264.212255
 20
-72.452839
 30
142.181555
 70
    64
  0
VERTEX
  8
I-HOLD
  5
2FD6
 10
265.696987
 20
-72.452839
 30
141.968083
 70
    64
  0
VERTEX
  8
I-HOLD
  5
2FD7
 10
263.12847
 20
-72.452839
 30
143.760528
 70
    64
  0
VERTEX
  8
I-HOLD
  5
2FD8
 10
264.492918
 20
-72.452839
 30
143.137405
 70
    64
  0
VERTEX
  8
I-HOLD
  5
2FD9
 10
265.857366
 20
-72.452839
 30
142.514283
 70
    64
  0
VERTEX
  8
I-HOLD
  5
2FDA
 10
263.897882
 20
-72.452839
 30
144.957757
 70
    64
  0
VERTEX
  8
I-HOLD
  5
2FDB
 10
265.031507
 20
-72.452839
 30
143.975465
 70
    64
  0
VERTEX
  8
I-HOLD
  5
2FDC
 10
266.165131
 20
-72.452839
 30
142.993174
 70
    64
  0
VERTEX
  8
I-HOLD
  5
2FDD
 10
264.973426
 20
-72.452839
 30
145.889721
 70
    64
  0
VERTEX
  8
I-HOLD
  5
2FDE
 10
265.784387
 20
-72.452839
 30
144.62784
 70
    64
  0
VERTEX
  8
I-HOLD
  5
2FDF
 10
266.595349
 20
-72.452839
 30
143.36596
 70
    64
  0
VERTEX
  8
I-HOLD
  5
2FE0
 10
266.267967
 20
-72.452839
 30
146.480918
 70
    64
  0
VERTEX
  8
I-HOLD
  5
2FE1
 10
266.690566
 20
-72.452839
 30
145.041678
 70
    64
  0
VERTEX
  8
I-HOLD
  5
2FE2
 10
267.113165
 20
-72.452839
 30
143.602439
 70
    64
  0
SEQEND
  8
I-HOLD
  5
2FE3
  0
POLYLINE
  8
I-HOLD
  5
2FE4
 66
     1
 10
0.0
 20
0.0
 30
0.0
 70
    17
 71
    22
 72
     3
  0
VERTEX
  8
I-HOLD
  5
2FE5
 10
267.67663
 20
-72.452839
 30
146.683453
 70
    64
  0
VERTEX
  8
I-HOLD
  5
2FE6
 10
267.67663
 20
-62.452839
 30
146.683453
 70
    64
  0
VERTEX
  8
I-HOLD
  5
2FE7
 10
267.67663
 20
-52.452839
 30
146.683453
 70
    64
  0
VERTEX
  8
I-HOLD
  5
2FE8
 10
269.085293
 20
-72.452839
 30
146.480918
 70
    64
  0
VERTEX
  8
I-HOLD
  5
2FE9
 10
269.085293
 20
-62.452839
 30
146.480918
 70
    64
  0
VERTEX
  8
I-HOLD
  5
2FEA
 10
269.085293
 20
-52.452839
 30
146.480918
 70
    64
  0
VERTEX
  8
I-HOLD
  5
2FEB
 10
270.379834
 20
-72.452839
 30
145.889721
 70
    64
  0
VERTEX
  8
I-HOLD
  5
2FEC
 10
270.379834
 20
-62.452839
 30
145.889721
 70
    64
  0
VERTEX
  8
I-HOLD
  5
2FED
 10
270.379834
 20
-52.452839
 30
145.889721
 70
    64
  0
VERTEX
  8
I-HOLD
  5
2FEE
 10
271.455378
 20
-72.452839
 30
144.957757
 70
    64
  0
VERTEX
  8
I-HOLD
  5
2FEF
 10
271.455378
 20
-62.452839
 30
144.957757
 70
    64
  0
VERTEX
  8
I-HOLD
  5
2FF0
 10
271.455378
 20
-52.452839
 30
144.957757
 70
    64
  0
VERTEX
  8
I-HOLD
  5
2FF1
 10
272.22479
 20
-72.452839
 30
143.760528
 70
    64
  0
VERTEX
  8
I-HOLD
  5
2FF2
 10
272.22479
 20
-62.452839
 30
143.760528
 70
    64
  0
VERTEX
  8
I-HOLD
  5
2FF3
 10
272.22479
 20
-52.452839
 30
143.760528
 70
    64
  0
VERTEX
  8
I-HOLD
  5
2FF4
 10
272.625737
 20
-72.452839
 30
142.395027
 70
    64
  0
VERTEX
  8
I-HOLD
  5
2FF5
 10
272.625737
 20
-62.452839
 30
142.395027
 70
    64
  0
VERTEX
  8
I-HOLD
  5
2FF6
 10
272.625737
 20
-52.452839
 30
142.395027
 70
    64
  0
VERTEX
  8
I-HOLD
  5
2FF7
 10
272.625737
 20
-72.452839
 30
140.971879
 70
    64
  0
VERTEX
  8
I-HOLD
  5
2FF8
 10
272.625737
 20
-62.452839
 30
140.971879
 70
    64
  0
VERTEX
  8
I-HOLD
  5
2FF9
 10
272.625737
 20
-52.452839
 30
140.971879
 70
    64
  0
VERTEX
  8
I-HOLD
  5
2FFA
 10
272.22479
 20
-72.452839
 30
139.606378
 70
    64
  0
VERTEX
  8
I-HOLD
  5
2FFB
 10
272.22479
 20
-62.452839
 30
139.606378
 70
    64
  0
VERTEX
  8
I-HOLD
  5
2FFC
 10
272.22479
 20
-52.452839
 30
139.606378
 70
    64
  0
VERTEX
  8
I-HOLD
  5
2FFD
 10
271.455378
 20
-72.452839
 30
138.409149
 70
    64
  0
VERTEX
  8
I-HOLD
  5
2FFE
 10
271.455378
 20
-62.452839
 30
138.409149
 70
    64
  0
VERTEX
  8
I-HOLD
  5
2FFF
 10
271.455378
 20
-52.452839
 30
138.409149
 70
    64
  0
VERTEX
  8
I-HOLD
  5
3000
 10
270.379834
 20
-72.452839
 30
137.477185
 70
    64
  0
VERTEX
  8
I-HOLD
  5
3001
 10
270.379834
 20
-62.452839
 30
137.477185
 70
    64
  0
VERTEX
  8
I-HOLD
  5
3002
 10
270.379834
 20
-52.452839
 30
137.477185
 70
    64
  0
VERTEX
  8
I-HOLD
  5
3003
 10
269.085293
 20
-72.452839
 30
136.885988
 70
    64
  0
VERTEX
  8
I-HOLD
  5
3004
 10
269.085293
 20
-62.452839
 30
136.885988
 70
    64
  0
VERTEX
  8
I-HOLD
  5
3005
 10
269.085293
 20
-52.452839
 30
136.885988
 70
    64
  0
VERTEX
  8
I-HOLD
  5
3006
 10
267.67663
 20
-72.452839
 30
136.683453
 70
    64
  0
VERTEX
  8
I-HOLD
  5
3007
 10
267.67663
 20
-62.452839
 30
136.683453
 70
    64
  0
VERTEX
  8
I-HOLD
  5
3008
 10
267.67663
 20
-52.452839
 30
136.683453
 70
    64
  0
VERTEX
  8
I-HOLD
  5
3009
 10
266.267967
 20
-72.452839
 30
136.885988
 70
    64
  0
VERTEX
  8
I-HOLD
  5
300A
 10
266.267967
 20
-62.452839
 30
136.885988
 70
    64
  0
VERTEX
  8
I-HOLD
  5
300B
 10
266.267967
 20
-52.452839
 30
136.885988
 70
    64
  0
VERTEX
  8
I-HOLD
  5
300C
 10
264.973426
 20
-72.452839
 30
137.477185
 70
    64
  0
VERTEX
  8
I-HOLD
  5
300D
 10
264.973426
 20
-62.452839
 30
137.477185
 70
    64
  0
VERTEX
  8
I-HOLD
  5
300E
 10
264.973426
 20
-52.452839
 30
137.477185
 70
    64
  0
VERTEX
  8
I-HOLD
  5
300F
 10
263.897882
 20
-72.452839
 30
138.409149
 70
    64
  0
VERTEX
  8
I-HOLD
  5
3010
 10
263.897882
 20
-62.452839
 30
138.409149
 70
    64
  0
VERTEX
  8
I-HOLD
  5
3011
 10
263.897882
 20
-52.452839
 30
138.409149
 70
    64
  0
VERTEX
  8
I-HOLD
  5
3012
 10
263.12847
 20
-72.452839
 30
139.606378
 70
    64
  0
VERTEX
  8
I-HOLD
  5
3013
 10
263.12847
 20
-62.452839
 30
139.606378
 70
    64
  0
VERTEX
  8
I-HOLD
  5
3014
 10
263.12847
 20
-52.452839
 30
139.606378
 70
    64
  0
VERTEX
  8
I-HOLD
  5
3015
 10
262.727523
 20
-72.452839
 30
140.971879
 70
    64
  0
VERTEX
  8
I-HOLD
  5
3016
 10
262.727523
 20
-62.452839
 30
140.971879
 70
    64
  0
VERTEX
  8
I-HOLD
  5
3017
 10
262.727523
 20
-52.452839
 30
140.971879
 70
    64
  0
VERTEX
  8
I-HOLD
  5
3018
 10
262.727523
 20
-72.452839
 30
142.395027
 70
    64
  0
VERTEX
  8
I-HOLD
  5
3019
 10
262.727523
 20
-62.452839
 30
142.395027
 70
    64
  0
VERTEX
  8
I-HOLD
  5
301A
 10
262.727523
 20
-52.452839
 30
142.395027
 70
    64
  0
VERTEX
  8
I-HOLD
  5
301B
 10
263.12847
 20
-72.452839
 30
143.760528
 70
    64
  0
VERTEX
  8
I-HOLD
  5
301C
 10
263.12847
 20
-62.452839
 30
143.760528
 70
    64
  0
VERTEX
  8
I-HOLD
  5
301D
 10
263.12847
 20
-52.452839
 30
143.760528
 70
    64
  0
VERTEX
  8
I-HOLD
  5
301E
 10
263.897882
 20
-72.452839
 30
144.957757
 70
    64
  0
VERTEX
  8
I-HOLD
  5
301F
 10
263.897882
 20
-62.452839
 30
144.957757
 70
    64
  0
VERTEX
  8
I-HOLD
  5
3020
 10
263.897882
 20
-52.452839
 30
144.957757
 70
    64
  0
VERTEX
  8
I-HOLD
  5
3021
 10
264.973426
 20
-72.452839
 30
145.889721
 70
    64
  0
VERTEX
  8
I-HOLD
  5
3022
 10
264.973426
 20
-62.452839
 30
145.889721
 70
    64
  0
VERTEX
  8
I-HOLD
  5
3023
 10
264.973426
 20
-52.452839
 30
145.889721
 70
    64
  0
VERTEX
  8
I-HOLD
  5
3024
 10
266.267967
 20
-72.452839
 30
146.480918
 70
    64
  0
VERTEX
  8
I-HOLD
  5
3025
 10
266.267967
 20
-62.452839
 30
146.480918
 70
    64
  0
VERTEX
  8
I-HOLD
  5
3026
 10
266.267967
 20
-52.452839
 30
146.480918
 70
    64
  0
SEQEND
  8
I-HOLD
  5
3027
  0
POLYLINE
  8
I-HOLD
  5
3028
 66
     1
 10
0.0
 20
0.0
 30
0.0
 70
    17
 71
    22
 72
     3
  0
VERTEX
  8
I-HOLD
  5
3029
 10
267.67663
 20
-52.452839
 30
146.683453
 70
    64
  0
VERTEX
  8
I-HOLD
  5
302A
 10
267.67663
 20
-52.452839
 30
149.915861
 70
    64
  0
VERTEX
  8
I-HOLD
  5
302B
 10
267.67663
 20
-52.452839
 30
153.148269
 70
    64
  0
VERTEX
  8
I-HOLD
  5
302C
 10
269.085293
 20
-52.452839
 30
146.480918
 70
    64
  0
VERTEX
  8
I-HOLD
  5
302D
 10
269.995968
 20
-52.452839
 30
149.582391
 70
    64
  0
VERTEX
  8
I-HOLD
  5
302E
 10
270.906642
 20
-52.452839
 30
152.683864
 70
    64
  0
VERTEX
  8
I-HOLD
  5
302F
 10
270.379834
 20
-52.452839
 30
145.889721
 70
    64
  0
VERTEX
  8
I-HOLD
  5
3030
 10
272.127406
 20
-52.452839
 30
148.608995
 70
    64
  0
VERTEX
  8
I-HOLD
  5
3031
 10
273.874978
 20
-52.452839
 30
151.32827
 70
    64
  0
VERTEX
  8
I-HOLD
  5
3032
 10
271.455378
 20
-52.452839
 30
144.957757
 70
    64
  0
VERTEX
  8
I-HOLD
  5
3033
 10
273.898269
 20
-52.452839
 30
147.074534
 70
    64
  0
VERTEX
  8
I-HOLD
  5
3034
 10
276.34116
 20
-52.452839
 30
149.191311
 70
    64
  0
VERTEX
  8
I-HOLD
  5
3035
 10
272.22479
 20
-52.452839
 30
143.760528
 70
    64
  0
VERTEX
  8
I-HOLD
  5
3036
 10
275.165092
 20
-52.452839
 30
145.103319
 70
    64
  0
VERTEX
  8
I-HOLD
  5
3037
 10
278.105394
 20
-52.452839
 30
146.44611
 70
    64
  0
VERTEX
  8
I-HOLD
  5
3038
 10
272.625737
 20
-52.452839
 30
142.395027
 70
    64
  0
VERTEX
  8
I-HOLD
  5
3039
 10
275.825244
 20
-52.452839
 30
142.855047
 70
    64
  0
VERTEX
  8
I-HOLD
  5
303A
 10
279.024751
 20
-52.452839
 30
143.315066
 70
    64
  0
VERTEX
  8
I-HOLD
  5
303B
 10
272.625737
 20
-52.452839
 30
140.971879
 70
    64
  0
VERTEX
  8
I-HOLD
  5
303C
 10
275.825244
 20
-52.452839
 30
140.511859
 70
    64
  0
VERTEX
  8
I-HOLD
  5
303D
 10
279.024751
 20
-52.452839
 30
140.051839
 70
    64
  0
VERTEX
  8
I-HOLD
  5
303E
 10
272.22479
 20
-52.452839
 30
139.606378
 70
    64
  0
VERTEX
  8
I-HOLD
  5
303F
 10
275.165092
 20
-52.452839
 30
138.263587
 70
    64
  0
VERTEX
  8
I-HOLD
  5
3040
 10
278.105394
 20
-52.452839
 30
136.920796
 70
    64
  0
VERTEX
  8
I-HOLD
  5
3041
 10
271.455378
 20
-52.452839
 30
138.409149
 70
    64
  0
VERTEX
  8
I-HOLD
  5
3042
 10
273.898269
 20
-52.452839
 30
136.292372
 70
    64
  0
VERTEX
  8
I-HOLD
  5
3043
 10
276.34116
 20
-52.452839
 30
134.175595
 70
    64
  0
VERTEX
  8
I-HOLD
  5
3044
 10
270.379834
 20
-52.452839
 30
137.477185
 70
    64
  0
VERTEX
  8
I-HOLD
  5
3045
 10
272.127406
 20
-52.452839
 30
134.757911
 70
    64
  0
VERTEX
  8
I-HOLD
  5
3046
 10
273.874978
 20
-52.452839
 30
132.038636
 70
    64
  0
VERTEX
  8
I-HOLD
  5
3047
 10
269.085293
 20
-52.452839
 30
136.885988
 70
    64
  0
VERTEX
  8
I-HOLD
  5
3048
 10
269.995968
 20
-52.452839
 30
133.784515
 70
    64
  0
VERTEX
  8
I-HOLD
  5
3049
 10
270.906642
 20
-52.452839
 30
130.683042
 70
    64
  0
VERTEX
  8
I-HOLD
  5
304A
 10
267.67663
 20
-52.452839
 30
136.683453
 70
    64
  0
VERTEX
  8
I-HOLD
  5
304B
 10
267.67663
 20
-52.452839
 30
133.451045
 70
    64
  0
VERTEX
  8
I-HOLD
  5
304C
 10
267.67663
 20
-52.452839
 30
130.218637
 70
    64
  0
VERTEX
  8
I-HOLD
  5
304D
 10
266.267967
 20
-52.452839
 30
136.885988
 70
    64
  0
VERTEX
  8
I-HOLD
  5
304E
 10
265.357293
 20
-52.452839
 30
133.784515
 70
    64
  0
VERTEX
  8
I-HOLD
  5
304F
 10
264.446618
 20
-52.452839
 30
130.683042
 70
    64
  0
VERTEX
  8
I-HOLD
  5
3050
 10
264.973426
 20
-52.452839
 30
137.477185
 70
    64
  0
VERTEX
  8
I-HOLD
  5
3051
 10
263.225854
 20
-52.452839
 30
134.757911
 70
    64
  0
VERTEX
  8
I-HOLD
  5
3052
 10
261.478283
 20
-52.452839
 30
132.038636
 70
    64
  0
VERTEX
  8
I-HOLD
  5
3053
 10
263.897882
 20
-52.452839
 30
138.409149
 70
    64
  0
VERTEX
  8
I-HOLD
  5
3054
 10
261.454991
 20
-52.452839
 30
136.292372
 70
    64
  0
VERTEX
  8
I-HOLD
  5
3055
 10
259.0121
 20
-52.452839
 30
134.175595
 70
    64
  0
VERTEX
  8
I-HOLD
  5
3056
 10
263.12847
 20
-52.452839
 30
139.606378
 70
    64
  0
VERTEX
  8
I-HOLD
  5
3057
 10
260.188168
 20
-52.452839
 30
138.263587
 70
    64
  0
VERTEX
  8
I-HOLD
  5
3058
 10
257.247867
 20
-52.452839
 30
136.920796
 70
    64
  0
VERTEX
  8
I-HOLD
  5
3059
 10
262.727523
 20
-52.452839
 30
140.971879
 70
    64
  0
VERTEX
  8
I-HOLD
  5
305A
 10
259.528016
 20
-52.452839
 30
140.511859
 70
    64
  0
VERTEX
  8
I-HOLD
  5
305B
 10
256.328509
 20
-52.452839
 30
140.051839
 70
    64
  0
VERTEX
  8
I-HOLD
  5
305C
 10
262.727523
 20
-52.452839
 30
142.395027
 70
    64
  0
VERTEX
  8
I-HOLD
  5
305D
 10
259.528016
 20
-52.452839
 30
142.855047
 70
    64
  0
VERTEX
  8
I-HOLD
  5
305E
 10
256.328509
 20
-52.452839
 30
143.315066
 70
    64
  0
VERTEX
  8
I-HOLD
  5
305F
 10
263.12847
 20
-52.452839
 30
143.760528
 70
    64
  0
VERTEX
  8
I-HOLD
  5
3060
 10
260.188168
 20
-52.452839
 30
145.103319
 70
    64
  0
VERTEX
  8
I-HOLD
  5
3061
 10
257.247867
 20
-52.452839
 30
146.44611
 70
    64
  0
VERTEX
  8
I-HOLD
  5
3062
 10
263.897882
 20
-52.452839
 30
144.957757
 70
    64
  0
VERTEX
  8
I-HOLD
  5
3063
 10
261.454991
 20
-52.452839
 30
147.074534
 70
    64
  0
VERTEX
  8
I-HOLD
  5
3064
 10
259.0121
 20
-52.452839
 30
149.191311
 70
    64
  0
VERTEX
  8
I-HOLD
  5
3065
 10
264.973426
 20
-52.452839
 30
145.889721
 70
    64
  0
VERTEX
  8
I-HOLD
  5
3066
 10
263.225854
 20
-52.452839
 30
148.608995
 70
    64
  0
VERTEX
  8
I-HOLD
  5
3067
 10
261.478283
 20
-52.452839
 30
151.32827
 70
    64
  0
VERTEX
  8
I-HOLD
  5
3068
 10
266.267967
 20
-52.452839
 30
146.480918
 70
    64
  0
VERTEX
  8
I-HOLD
  5
3069
 10
265.357293
 20
-52.452839
 30
149.582391
 70
    64
  0
VERTEX
  8
I-HOLD
  5
306A
 10
264.446618
 20
-52.452839
 30
152.683864
 70
    64
  0
SEQEND
  8
I-HOLD
  5
306B
  0
POLYLINE
  8
I-HOLD
  5
306C
 66
     1
 10
0.0
 20
0.0
 30
0.0
 70
    17
 71
    22
 72
     3
  0
VERTEX
  8
I-HOLD
  5
306D
 10
267.67663
 20
-52.007539
 30
153.980319
 70
    64
  0
VERTEX
  8
I-HOLD
  5
306E
 10
267.67663
 20
-52.334514
 30
153.620127
 70
    64
  0
VERTEX
  8
I-HOLD
  5
306F
 10
267.67663
 20
-52.452839
 30
153.148269
 70
    64
  0
VERTEX
  8
I-HOLD
  5
3070
 10
271.141058
 20
-52.007539
 30
153.48221
 70
    64
  0
VERTEX
  8
I-HOLD
  5
3071
 10
271.03958
 20
-52.334514
 30
153.136608
 70
    64
  0
VERTEX
  8
I-HOLD
  5
3072
 10
270.906642
 20
-52.452839
 30
152.683864
 70
    64
  0
VERTEX
  8
I-HOLD
  5
3073
 10
274.324818
 20
-52.007539
 30
152.028235
 70
    64
  0
VERTEX
  8
I-HOLD
  5
3074
 10
274.130084
 20
-52.334514
 30
151.725222
 70
    64
  0
VERTEX
  8
I-HOLD
  5
3075
 10
273.874978
 20
-52.452839
 30
151.32827
 70
    64
  0
VERTEX
  8
I-HOLD
  5
3076
 10
276.969982
 20
-52.007539
 30
149.736188
 70
    64
  0
VERTEX
  8
I-HOLD
  5
3077
 10
276.697767
 20
-52.334514
 30
149.500312
 70
    64
  0
VERTEX
  8
I-HOLD
  5
3078
 10
276.34116
 20
-52.452839
 30
149.191311
 70
    64
  0
VERTEX
  8
I-HOLD
  5
3079
 10
278.862254
 20
-52.007539
 30
146.791756
 70
    64
  0
VERTEX
  8
I-HOLD
  5
307A
 10
278.534611
 20
-52.334514
 30
146.642127
 70
    64
  0
VERTEX
  8
I-HOLD
  5
307B
 10
278.105394
 20
-52.452839
 30
146.44611
 70
    64
  0
VERTEX
  8
I-HOLD
  5
307C
 10
279.848332
 20
-52.007539
 30
143.433479
 70
    64
  0
VERTEX
  8
I-HOLD
  5
307D
 10
279.491806
 20
-52.334514
 30
143.382219
 70
    64
  0
VERTEX
  8
I-HOLD
  5
307E
 10
279.024751
 20
-52.452839
 30
143.315066
 70
    64
  0
VERTEX
  8
I-HOLD
  5
307F
 10
279.848332
 20
-52.007539
 30
139.933426
 70
    64
  0
VERTEX
  8
I-HOLD
  5
3080
 10
279.491806
 20
-52.334514
 30
139.984687
 70
    64
  0
VERTEX
  8
I-HOLD
  5
3081
 10
279.024751
 20
-52.452839
 30
140.051839
 70
    64
  0
VERTEX
  8
I-HOLD
  5
3082
 10
278.862254
 20
-52.007539
 30
136.57515
 70
    64
  0
VERTEX
  8
I-HOLD
  5
3083
 10
278.534611
 20
-52.334514
 30
136.724779
 70
    64
  0
VERTEX
  8
I-HOLD
  5
3084
 10
278.105394
 20
-52.452839
 30
136.920796
 70
    64
  0
VERTEX
  8
I-HOLD
  5
3085
 10
276.969982
 20
-52.007539
 30
133.630718
 70
    64
  0
VERTEX
  8
I-HOLD
  5
3086
 10
276.697767
 20
-52.334514
 30
133.866594
 70
    64
  0
VERTEX
  8
I-HOLD
  5
3087
 10
276.34116
 20
-52.452839
 30
134.175595
 70
    64
  0
VERTEX
  8
I-HOLD
  5
3088
 10
274.324818
 20
-52.007539
 30
131.338671
 70
    64
  0
VERTEX
  8
I-HOLD
  5
3089
 10
274.130084
 20
-52.334514
 30
131.641684
 70
    64
  0
VERTEX
  8
I-HOLD
  5
308A
 10
273.874978
 20
-52.452839
 30
132.038636
 70
    64
  0
VERTEX
  8
I-HOLD
  5
308B
 10
271.141058
 20
-52.007539
 30
129.884696
 70
    64
  0
VERTEX
  8
I-HOLD
  5
308C
 10
271.03958
 20
-52.334514
 30
130.230298
 70
    64
  0
VERTEX
  8
I-HOLD
  5
308D
 10
270.906642
 20
-52.452839
 30
130.683042
 70
    64
  0
VERTEX
  8
I-HOLD
  5
308E
 10
267.67663
 20
-52.007539
 30
129.386586
 70
    64
  0
VERTEX
  8
I-HOLD
  5
308F
 10
267.67663
 20
-52.334514
 30
129.746779
 70
    64
  0
VERTEX
  8
I-HOLD
  5
3090
 10
267.67663
 20
-52.452839
 30
130.218637
 70
    64
  0
VERTEX
  8
I-HOLD
  5
3091
 10
264.212203
 20
-52.007539
 30
129.884696
 70
    64
  0
VERTEX
  8
I-HOLD
  5
3092
 10
264.313681
 20
-52.334514
 30
130.230298
 70
    64
  0
VERTEX
  8
I-HOLD
  5
3093
 10
264.446618
 20
-52.452839
 30
130.683042
 70
    64
  0
VERTEX
  8
I-HOLD
  5
3094
 10
261.028442
 20
-52.007539
 30
131.338671
 70
    64
  0
VERTEX
  8
I-HOLD
  5
3095
 10
261.223177
 20
-52.334514
 30
131.641684
 70
    64
  0
VERTEX
  8
I-HOLD
  5
3096
 10
261.478283
 20
-52.452839
 30
132.038636
 70
    64
  0
VERTEX
  8
I-HOLD
  5
3097
 10
258.383279
 20
-52.007539
 30
133.630718
 70
    64
  0
VERTEX
  8
I-HOLD
  5
3098
 10
258.655494
 20
-52.334514
 30
133.866594
 70
    64
  0
VERTEX
  8
I-HOLD
  5
3099
 10
259.0121
 20
-52.452839
 30
134.175595
 70
    64
  0
VERTEX
  8
I-HOLD
  5
309A
 10
256.491007
 20
-52.007539
 30
136.57515
 70
    64
  0
VERTEX
  8
I-HOLD
  5
309B
 10
256.81865
 20
-52.334514
 30
136.724779
 70
    64
  0
VERTEX
  8
I-HOLD
  5
309C
 10
257.247867
 20
-52.452839
 30
136.920796
 70
    64
  0
VERTEX
  8
I-HOLD
  5
309D
 10
255.504928
 20
-52.007539
 30
139.933426
 70
    64
  0
VERTEX
  8
I-HOLD
  5
309E
 10
255.861454
 20
-52.334514
 30
139.984687
 70
    64
  0
VERTEX
  8
I-HOLD
  5
309F
 10
256.328509
 20
-52.452839
 30
140.051839
 70
    64
  0
VERTEX
  8
I-HOLD
  5
30A0
 10
255.504928
 20
-52.007539
 30
143.433479
 70
    64
  0
VERTEX
  8
I-HOLD
  5
30A1
 10
255.861454
 20
-52.334514
 30
143.382219
 70
    64
  0
VERTEX
  8
I-HOLD
  5
30A2
 10
256.328509
 20
-52.452839
 30
143.315066
 70
    64
  0
VERTEX
  8
I-HOLD
  5
30A3
 10
256.491007
 20
-52.007539
 30
146.791756
 70
    64
  0
VERTEX
  8
I-HOLD
  5
30A4
 10
256.81865
 20
-52.334514
 30
146.642127
 70
    64
  0
VERTEX
  8
I-HOLD
  5
30A5
 10
257.247867
 20
-52.452839
 30
146.44611
 70
    64
  0
VERTEX
  8
I-HOLD
  5
30A6
 10
258.383279
 20
-52.007539
 30
149.736188
 70
    64
  0
VERTEX
  8
I-HOLD
  5
30A7
 10
258.655494
 20
-52.334514
 30
149.500312
 70
    64
  0
VERTEX
  8
I-HOLD
  5
30A8
 10
259.0121
 20
-52.452839
 30
149.191311
 70
    64
  0
VERTEX
  8
I-HOLD
  5
30A9
 10
261.028442
 20
-52.007539
 30
152.028235
 70
    64
  0
VERTEX
  8
I-HOLD
  5
30AA
 10
261.223177
 20
-52.334514
 30
151.725222
 70
    64
  0
VERTEX
  8
I-HOLD
  5
30AB
 10
261.478283
 20
-52.452839
 30
151.32827
 70
    64
  0
VERTEX
  8
I-HOLD
  5
30AC
 10
264.212203
 20
-52.007539
 30
153.48221
 70
    64
  0
VERTEX
  8
I-HOLD
  5
30AD
 10
264.313681
 20
-52.334514
 30
153.136608
 70
    64
  0
VERTEX
  8
I-HOLD
  5
30AE
 10
264.446618
 20
-52.452839
 30
152.683864
 70
    64
  0
SEQEND
  8
I-HOLD
  5
30AF
  0
POLYLINE
  8
I-HOLD
  5
30B0
 66
     1
 10
0.0
 20
0.0
 30
0.0
 70
    17
 71
    22
 72
     3
  0
VERTEX
  8
I-HOLD
  5
30B1
 10
267.67663
 20
-52.007539
 30
153.980319
 70
    64
  0
VERTEX
  8
I-HOLD
  5
30B2
 10
267.67663
 20
-44.856152
 30
158.747911
 70
    64
  0
VERTEX
  8
I-HOLD
  5
30B3
 10
267.67663
 20
-37.704764
 30
163.515503
 70
    64
  0
VERTEX
  8
I-HOLD
  5
30B4
 10
271.141058
 20
-52.007539
 30
153.48221
 70
    64
  0
VERTEX
  8
I-HOLD
  5
30B5
 10
272.484244
 20
-44.856152
 30
158.056681
 70
    64
  0
VERTEX
  8
I-HOLD
  5
30B6
 10
273.82743
 20
-37.704764
 30
162.631152
 70
    64
  0
VERTEX
  8
I-HOLD
  5
30B7
 10
274.324818
 20
-52.007539
 30
152.028235
 70
    64
  0
VERTEX
  8
I-HOLD
  5
30B8
 10
276.902373
 20
-44.856152
 30
156.038989
 70
    64
  0
VERTEX
  8
I-HOLD
  5
30B9
 10
279.479928
 20
-37.704764
 30
160.049742
 70
    64
  0
VERTEX
  8
I-HOLD
  5
30BA
 10
276.969982
 20
-52.007539
 30
149.736188
 70
    64
  0
VERTEX
  8
I-HOLD
  5
30BB
 10
280.573087
 20
-44.856152
 30
152.858297
 70
    64
  0
VERTEX
  8
I-HOLD
  5
30BC
 10
284.176193
 20
-37.704764
 30
155.980405
 70
    64
  0
VERTEX
  8
I-HOLD
  5
30BD
 10
278.862254
 20
-52.007539
 30
146.791756
 70
    64
  0
VERTEX
  8
I-HOLD
  5
30BE
 10
283.199008
 20
-44.856152
 30
148.772285
 70
    64
  0
VERTEX
  8
I-HOLD
  5
30BF
 10
287.535762
 20
-37.704764
 30
150.752814
 70
    64
  0
VERTEX
  8
I-HOLD
  5
30C0
 10
279.848332
 20
-52.007539
 30
143.433479
 70
    64
  0
VERTEX
  8
I-HOLD
  5
30C1
 10
284.567397
 20
-44.856152
 30
144.111979
 70
    64
  0
VERTEX
  8
I-HOLD
  5
30C2
 10
289.286462
 20
-37.704764
 30
144.790478
 70
    64
  0
VERTEX
  8
I-HOLD
  5
30C3
 10
279.848332
 20
-52.007539
 30
139.933426
 70
    64
  0
VERTEX
  8
I-HOLD
  5
30C4
 10
284.567397
 20
-44.856152
 30
139.254927
 70
    64
  0
VERTEX
  8
I-HOLD
  5
30C5
 10
289.286462
 20
-37.704764
 30
138.576428
 70
    64
  0
VERTEX
  8
I-HOLD
  5
30C6
 10
278.862254
 20
-52.007539
 30
136.57515
 70
    64
  0
VERTEX
  8
I-HOLD
  5
30C7
 10
283.199008
 20
-44.856152
 30
134.594621
 70
    64
  0
VERTEX
  8
I-HOLD
  5
30C8
 10
287.535762
 20
-37.704764
 30
132.614091
 70
    64
  0
VERTEX
  8
I-HOLD
  5
30C9
 10
276.969982
 20
-52.007539
 30
133.630718
 70
    64
  0
VERTEX
  8
I-HOLD
  5
30CA
 10
280.573087
 20
-44.856152
 30
130.508609
 70
    64
  0
VERTEX
  8
I-HOLD
  5
30CB
 10
284.176193
 20
-37.704764
 30
127.3865
 70
    64
  0
VERTEX
  8
I-HOLD
  5
30CC
 10
274.324818
 20
-52.007539
 30
131.338671
 70
    64
  0
VERTEX
  8
I-HOLD
  5
30CD
 10
276.902373
 20
-44.856152
 30
127.327917
 70
    64
  0
VERTEX
  8
I-HOLD
  5
30CE
 10
279.479928
 20
-37.704764
 30
123.317163
 70
    64
  0
VERTEX
  8
I-HOLD
  5
30CF
 10
271.141058
 20
-52.007539
 30
129.884696
 70
    64
  0
VERTEX
  8
I-HOLD
  5
30D0
 10
272.484244
 20
-44.856152
 30
125.310225
 70
    64
  0
VERTEX
  8
I-HOLD
  5
30D1
 10
273.82743
 20
-37.704764
 30
120.735754
 70
    64
  0
VERTEX
  8
I-HOLD
  5
30D2
 10
267.67663
 20
-52.007539
 30
129.386586
 70
    64
  0
VERTEX
  8
I-HOLD
  5
30D3
 10
267.67663
 20
-44.856152
 30
124.618995
 70
    64
  0
VERTEX
  8
I-HOLD
  5
30D4
 10
267.67663
 20
-37.704764
 30
119.851403
 70
    64
  0
VERTEX
  8
I-HOLD
  5
30D5
 10
264.212203
 20
-52.007539
 30
129.884696
 70
    64
  0
VERTEX
  8
I-HOLD
  5
30D6
 10
262.869017
 20
-44.856152
 30
125.310225
 70
    64
  0
VERTEX
  8
I-HOLD
  5
30D7
 10
261.525831
 20
-37.704764
 30
120.735754
 70
    64
  0
VERTEX
  8
I-HOLD
  5
30D8
 10
261.028442
 20
-52.007539
 30
131.338671
 70
    64
  0
VERTEX
  8
I-HOLD
  5
30D9
 10
258.450888
 20
-44.856152
 30
127.327917
 70
    64
  0
VERTEX
  8
I-HOLD
  5
30DA
 10
255.873333
 20
-37.704764
 30
123.317163
 70
    64
  0
VERTEX
  8
I-HOLD
  5
30DB
 10
258.383279
 20
-52.007539
 30
133.630718
 70
    64
  0
VERTEX
  8
I-HOLD
  5
30DC
 10
254.780173
 20
-44.856152
 30
130.508609
 70
    64
  0
VERTEX
  8
I-HOLD
  5
30DD
 10
251.177068
 20
-37.704764
 30
127.3865
 70
    64
  0
VERTEX
  8
I-HOLD
  5
30DE
 10
256.491007
 20
-52.007539
 30
136.57515
 70
    64
  0
VERTEX
  8
I-HOLD
  5
30DF
 10
252.154253
 20
-44.856152
 30
134.594621
 70
    64
  0
VERTEX
  8
I-HOLD
  5
30E0
 10
247.817499
 20
-37.704764
 30
132.614091
 70
    64
  0
VERTEX
  8
I-HOLD
  5
30E1
 10
255.504928
 20
-52.007539
 30
139.933426
 70
    64
  0
VERTEX
  8
I-HOLD
  5
30E2
 10
250.785863
 20
-44.856152
 30
139.254927
 70
    64
  0
VERTEX
  8
I-HOLD
  5
30E3
 10
246.066799
 20
-37.704764
 30
138.576428
 70
    64
  0
VERTEX
  8
I-HOLD
  5
30E4
 10
255.504928
 20
-52.007539
 30
143.433479
 70
    64
  0
VERTEX
  8
I-HOLD
  5
30E5
 10
250.785863
 20
-44.856152
 30
144.111979
 70
    64
  0
VERTEX
  8
I-HOLD
  5
30E6
 10
246.066799
 20
-37.704764
 30
144.790478
 70
    64
  0
VERTEX
  8
I-HOLD
  5
30E7
 10
256.491007
 20
-52.007539
 30
146.791756
 70
    64
  0
VERTEX
  8
I-HOLD
  5
30E8
 10
252.154253
 20
-44.856152
 30
148.772285
 70
    64
  0
VERTEX
  8
I-HOLD
  5
30E9
 10
247.817499
 20
-37.704764
 30
150.752814
 70
    64
  0
VERTEX
  8
I-HOLD
  5
30EA
 10
258.383279
 20
-52.007539
 30
149.736188
 70
    64
  0
VERTEX
  8
I-HOLD
  5
30EB
 10
254.780173
 20
-44.856152
 30
152.858297
 70
    64
  0
VERTEX
  8
I-HOLD
  5
30EC
 10
251.177068
 20
-37.704764
 30
155.980405
 70
    64
  0
VERTEX
  8
I-HOLD
  5
30ED
 10
261.028442
 20
-52.007539
 30
152.028235
 70
    64
  0
VERTEX
  8
I-HOLD
  5
30EE
 10
258.450888
 20
-44.856152
 30
156.038989
 70
    64
  0
VERTEX
  8
I-HOLD
  5
30EF
 10
255.873333
 20
-37.704764
 30
160.049742
 70
    64
  0
VERTEX
  8
I-HOLD
  5
30F0
 10
264.212203
 20
-52.007539
 30
153.48221
 70
    64
  0
VERTEX
  8
I-HOLD
  5
30F1
 10
262.869017
 20
-44.856152
 30
158.056681
 70
    64
  0
VERTEX
  8
I-HOLD
  5
30F2
 10
261.525831
 20
-37.704764
 30
162.631152
 70
    64
  0
SEQEND
  8
I-HOLD
  5
30F3
  0
POLYLINE
  8
I-HOLD
  5
30F4
 66
     1
 10
0.0
 20
0.0
 30
0.0
 70
    17
 71
    22
 72
     3
  0
VERTEX
  8
I-HOLD
  5
30F5
 10
267.67663
 20
-37.150064
 30
163.683453
 70
    64
  0
VERTEX
  8
I-HOLD
  5
30F6
 10
267.67663
 20
-37.439848
 30
163.640545
 70
    64
  0
VERTEX
  8
I-HOLD
  5
30F7
 10
267.67663
 20
-37.704764
 30
163.515503
 70
    64
  0
VERTEX
  8
I-HOLD
  5
30F8
 10
273.874747
 20
-37.150064
 30
162.792298
 70
    64
  0
VERTEX
  8
I-HOLD
  5
30F9
 10
273.862658
 20
-37.439848
 30
162.751128
 70
    64
  0
VERTEX
  8
I-HOLD
  5
30FA
 10
273.82743
 20
-37.704764
 30
162.631152
 70
    64
  0
VERTEX
  8
I-HOLD
  5
30FB
 10
279.570728
 20
-37.150064
 30
160.191031
 70
    64
  0
VERTEX
  8
I-HOLD
  5
30FC
 10
279.54753
 20
-37.439848
 30
160.154934
 70
    64
  0
VERTEX
  8
I-HOLD
  5
30FD
 10
279.479928
 20
-37.704764
 30
160.049742
 70
    64
  0
VERTEX
  8
I-HOLD
  5
30FE
 10
284.303121
 20
-37.150064
 30
156.090389
 70
    64
  0
VERTEX
  8
I-HOLD
  5
30FF
 10
284.270693
 20
-37.439848
 30
156.06229
 70
    64
  0
VERTEX
  8
I-HOLD
  5
3100
 10
284.176193
 20
-37.704764
 30
155.980405
 70
    64
  0
VERTEX
  8
I-HOLD
  5
3101
 10
287.688534
 20
-37.150064
 30
150.822583
 70
    64
  0
VERTEX
  8
I-HOLD
  5
3102
 10
287.649504
 20
-37.439848
 30
150.804759
 70
    64
  0
VERTEX
  8
I-HOLD
  5
3103
 10
287.535762
 20
-37.704764
 30
150.752814
 70
    64
  0
VERTEX
  8
I-HOLD
  5
3104
 10
289.452702
 20
-37.150064
 30
144.814379
 70
    64
  0
VERTEX
  8
I-HOLD
  5
3105
 10
289.410231
 20
-37.439848
 30
144.808273
 70
    64
  0
VERTEX
  8
I-HOLD
  5
3106
 10
289.286462
 20
-37.704764
 30
144.790478
 70
    64
  0
VERTEX
  8
I-HOLD
  5
3107
 10
289.452702
 20
-37.150064
 30
138.552526
 70
    64
  0
VERTEX
  8
I-HOLD
  5
3108
 10
289.410231
 20
-37.439848
 30
138.558633
 70
    64
  0
VERTEX
  8
I-HOLD
  5
3109
 10
289.286462
 20
-37.704764
 30
138.576428
 70
    64
  0
VERTEX
  8
I-HOLD
  5
310A
 10
287.688534
 20
-37.150064
 30
132.544323
 70
    64
  0
VERTEX
  8
I-HOLD
  5
310B
 10
287.649504
 20
-37.439848
 30
132.562147
 70
    64
  0
VERTEX
  8
I-HOLD
  5
310C
 10
287.535762
 20
-37.704764
 30
132.614091
 70
    64
  0
VERTEX
  8
I-HOLD
  5
310D
 10
284.303121
 20
-37.150064
 30
127.276517
 70
    64
  0
VERTEX
  8
I-HOLD
  5
310E
 10
284.270693
 20
-37.439848
 30
127.304616
 70
    64
  0
VERTEX
  8
I-HOLD
  5
310F
 10
284.176193
 20
-37.704764
 30
127.3865
 70
    64
  0
VERTEX
  8
I-HOLD
  5
3110
 10
279.570728
 20
-37.150064
 30
123.175875
 70
    64
  0
VERTEX
  8
I-HOLD
  5
3111
 10
279.54753
 20
-37.439848
 30
123.211972
 70
    64
  0
VERTEX
  8
I-HOLD
  5
3112
 10
279.479928
 20
-37.704764
 30
123.317163
 70
    64
  0
VERTEX
  8
I-HOLD
  5
3113
 10
273.874747
 20
-37.150064
 30
120.574608
 70
    64
  0
VERTEX
  8
I-HOLD
  5
3114
 10
273.862658
 20
-37.439848
 30
120.615777
 70
    64
  0
VERTEX
  8
I-HOLD
  5
3115
 10
273.82743
 20
-37.704764
 30
120.735754
 70
    64
  0
VERTEX
  8
I-HOLD
  5
3116
 10
267.67663
 20
-37.150064
 30
119.683453
 70
    64
  0
VERTEX
  8
I-HOLD
  5
3117
 10
267.67663
 20
-37.439848
 30
119.726361
 70
    64
  0
VERTEX
  8
I-HOLD
  5
3118
 10
267.67663
 20
-37.704764
 30
119.851403
 70
    64
  0
VERTEX
  8
I-HOLD
  5
3119
 10
261.478514
 20
-37.150064
 30
120.574608
 70
    64
  0
VERTEX
  8
I-HOLD
  5
311A
 10
261.490603
 20
-37.439848
 30
120.615777
 70
    64
  0
VERTEX
  8
I-HOLD
  5
311B
 10
261.525831
 20
-37.704764
 30
120.735754
 70
    64
  0
VERTEX
  8
I-HOLD
  5
311C
 10
255.782532
 20
-37.150064
 30
123.175875
 70
    64
  0
VERTEX
  8
I-HOLD
  5
311D
 10
255.80573
 20
-37.439848
 30
123.211972
 70
    64
  0
VERTEX
  8
I-HOLD
  5
311E
 10
255.873333
 20
-37.704764
 30
123.317163
 70
    64
  0
VERTEX
  8
I-HOLD
  5
311F
 10
251.05014
 20
-37.150064
 30
127.276517
 70
    64
  0
VERTEX
  8
I-HOLD
  5
3120
 10
251.082567
 20
-37.439848
 30
127.304616
 70
    64
  0
VERTEX
  8
I-HOLD
  5
3121
 10
251.177068
 20
-37.704764
 30
127.3865
 70
    64
  0
VERTEX
  8
I-HOLD
  5
3122
 10
247.664726
 20
-37.150064
 30
132.544323
 70
    64
  0
VERTEX
  8
I-HOLD
  5
3123
 10
247.703757
 20
-37.439848
 30
132.562147
 70
    64
  0
VERTEX
  8
I-HOLD
  5
3124
 10
247.817499
 20
-37.704764
 30
132.614091
 70
    64
  0
VERTEX
  8
I-HOLD
  5
3125
 10
245.900559
 20
-37.150064
 30
138.552526
 70
    64
  0
VERTEX
  8
I-HOLD
  5
3126
 10
245.94303
 20
-37.439848
 30
138.558633
 70
    64
  0
VERTEX
  8
I-HOLD
  5
3127
 10
246.066799
 20
-37.704764
 30
138.576428
 70
    64
  0
VERTEX
  8
I-HOLD
  5
3128
 10
245.900559
 20
-37.150064
 30
144.814379
 70
    64
  0
VERTEX
  8
I-HOLD
  5
3129
 10
245.94303
 20
-37.439848
 30
144.808273
 70
    64
  0
VERTEX
  8
I-HOLD
  5
312A
 10
246.066799
 20
-37.704764
 30
144.790478
 70
    64
  0
VERTEX
  8
I-HOLD
  5
312B
 10
247.664726
 20
-37.150064
 30
150.822583
 70
    64
  0
VERTEX
  8
I-HOLD
  5
312C
 10
247.703757
 20
-37.439848
 30
150.804759
 70
    64
  0
VERTEX
  8
I-HOLD
  5
312D
 10
247.817499
 20
-37.704764
 30
150.752814
 70
    64
  0
VERTEX
  8
I-HOLD
  5
312E
 10
251.05014
 20
-37.150064
 30
156.090389
 70
    64
  0
VERTEX
  8
I-HOLD
  5
312F
 10
251.082567
 20
-37.439848
 30
156.06229
 70
    64
  0
VERTEX
  8
I-HOLD
  5
3130
 10
251.177068
 20
-37.704764
 30
155.980405
 70
    64
  0
VERTEX
  8
I-HOLD
  5
3131
 10
255.782532
 20
-37.150064
 30
160.191031
 70
    64
  0
VERTEX
  8
I-HOLD
  5
3132
 10
255.80573
 20
-37.439848
 30
160.154934
 70
    64
  0
VERTEX
  8
I-HOLD
  5
3133
 10
255.873333
 20
-37.704764
 30
160.049742
 70
    64
  0
VERTEX
  8
I-HOLD
  5
3134
 10
261.478514
 20
-37.150064
 30
162.792298
 70
    64
  0
VERTEX
  8
I-HOLD
  5
3135
 10
261.490603
 20
-37.439848
 30
162.751128
 70
    64
  0
VERTEX
  8
I-HOLD
  5
3136
 10
261.525831
 20
-37.704764
 30
162.631152
 70
    64
  0
SEQEND
  8
I-HOLD
  5
3137
  0
POLYLINE
  8
I-HOLD
  5
3138
 66
     1
 10
0.0
 20
0.0
 30
0.0
 70
    17
 71
    22
 72
     3
  0
VERTEX
  8
I-HOLD
  5
3139
 10
267.67663
 20
-35.452839
 30
163.683453
 70
    64
  0
VERTEX
  8
I-HOLD
  5
313A
 10
267.67663
 20
-36.301451
 30
163.683453
 70
    64
  0
VERTEX
  8
I-HOLD
  5
313B
 10
267.67663
 20
-37.150064
 30
163.683453
 70
    64
  0
VERTEX
  8
I-HOLD
  5
313C
 10
273.874747
 20
-35.452839
 30
162.792298
 70
    64
  0
VERTEX
  8
I-HOLD
  5
313D
 10
273.874747
 20
-36.301451
 30
162.792298
 70
    64
  0
VERTEX
  8
I-HOLD
  5
313E
 10
273.874747
 20
-37.150064
 30
162.792298
 70
    64
  0
VERTEX
  8
I-HOLD
  5
313F
 10
279.570728
 20
-35.452839
 30
160.191031
 70
    64
  0
VERTEX
  8
I-HOLD
  5
3140
 10
279.570728
 20
-36.301451
 30
160.191031
 70
    64
  0
VERTEX
  8
I-HOLD
  5
3141
 10
279.570728
 20
-37.150064
 30
160.191031
 70
    64
  0
VERTEX
  8
I-HOLD
  5
3142
 10
284.303121
 20
-35.452839
 30
156.090389
 70
    64
  0
VERTEX
  8
I-HOLD
  5
3143
 10
284.303121
 20
-36.301451
 30
156.090389
 70
    64
  0
VERTEX
  8
I-HOLD
  5
3144
 10
284.303121
 20
-37.150064
 30
156.090389
 70
    64
  0
VERTEX
  8
I-HOLD
  5
3145
 10
287.688534
 20
-35.452839
 30
150.822583
 70
    64
  0
VERTEX
  8
I-HOLD
  5
3146
 10
287.688534
 20
-36.301451
 30
150.822583
 70
    64
  0
VERTEX
  8
I-HOLD
  5
3147
 10
287.688534
 20
-37.150064
 30
150.822583
 70
    64
  0
VERTEX
  8
I-HOLD
  5
3148
 10
289.452702
 20
-35.452839
 30
144.814379
 70
    64
  0
VERTEX
  8
I-HOLD
  5
3149
 10
289.452702
 20
-36.301451
 30
144.814379
 70
    64
  0
VERTEX
  8
I-HOLD
  5
314A
 10
289.452702
 20
-37.150064
 30
144.814379
 70
    64
  0
VERTEX
  8
I-HOLD
  5
314B
 10
289.452702
 20
-35.452839
 30
138.552526
 70
    64
  0
VERTEX
  8
I-HOLD
  5
314C
 10
289.452702
 20
-36.301451
 30
138.552526
 70
    64
  0
VERTEX
  8
I-HOLD
  5
314D
 10
289.452702
 20
-37.150064
 30
138.552526
 70
    64
  0
VERTEX
  8
I-HOLD
  5
314E
 10
287.688534
 20
-35.452839
 30
132.544323
 70
    64
  0
VERTEX
  8
I-HOLD
  5
314F
 10
287.688534
 20
-36.301451
 30
132.544323
 70
    64
  0
VERTEX
  8
I-HOLD
  5
3150
 10
287.688534
 20
-37.150064
 30
132.544323
 70
    64
  0
VERTEX
  8
I-HOLD
  5
3151
 10
284.303121
 20
-35.452839
 30
127.276517
 70
    64
  0
VERTEX
  8
I-HOLD
  5
3152
 10
284.303121
 20
-36.301451
 30
127.276517
 70
    64
  0
VERTEX
  8
I-HOLD
  5
3153
 10
284.303121
 20
-37.150064
 30
127.276517
 70
    64
  0
VERTEX
  8
I-HOLD
  5
3154
 10
279.570728
 20
-35.452839
 30
123.175875
 70
    64
  0
VERTEX
  8
I-HOLD
  5
3155
 10
279.570728
 20
-36.301451
 30
123.175875
 70
    64
  0
VERTEX
  8
I-HOLD
  5
3156
 10
279.570728
 20
-37.150064
 30
123.175875
 70
    64
  0
VERTEX
  8
I-HOLD
  5
3157
 10
273.874747
 20
-35.452839
 30
120.574608
 70
    64
  0
VERTEX
  8
I-HOLD
  5
3158
 10
273.874747
 20
-36.301451
 30
120.574608
 70
    64
  0
VERTEX
  8
I-HOLD
  5
3159
 10
273.874747
 20
-37.150064
 30
120.574608
 70
    64
  0
VERTEX
  8
I-HOLD
  5
315A
 10
267.67663
 20
-35.452839
 30
119.683453
 70
    64
  0
VERTEX
  8
I-HOLD
  5
315B
 10
267.67663
 20
-36.301451
 30
119.683453
 70
    64
  0
VERTEX
  8
I-HOLD
  5
315C
 10
267.67663
 20
-37.150064
 30
119.683453
 70
    64
  0
VERTEX
  8
I-HOLD
  5
315D
 10
261.478514
 20
-35.452839
 30
120.574608
 70
    64
  0
VERTEX
  8
I-HOLD
  5
315E
 10
261.478514
 20
-36.301451
 30
120.574608
 70
    64
  0
VERTEX
  8
I-HOLD
  5
315F
 10
261.478514
 20
-37.150064
 30
120.574608
 70
    64
  0
VERTEX
  8
I-HOLD
  5
3160
 10
255.782532
 20
-35.452839
 30
123.175875
 70
    64
  0
VERTEX
  8
I-HOLD
  5
3161
 10
255.782532
 20
-36.301451
 30
123.175875
 70
    64
  0
VERTEX
  8
I-HOLD
  5
3162
 10
255.782532
 20
-37.150064
 30
123.175875
 70
    64
  0
VERTEX
  8
I-HOLD
  5
3163
 10
251.05014
 20
-35.452839
 30
127.276517
 70
    64
  0
VERTEX
  8
I-HOLD
  5
3164
 10
251.05014
 20
-36.301451
 30
127.276517
 70
    64
  0
VERTEX
  8
I-HOLD
  5
3165
 10
251.05014
 20
-37.150064
 30
127.276517
 70
    64
  0
VERTEX
  8
I-HOLD
  5
3166
 10
247.664726
 20
-35.452839
 30
132.544323
 70
    64
  0
VERTEX
  8
I-HOLD
  5
3167
 10
247.664726
 20
-36.301451
 30
132.544323
 70
    64
  0
VERTEX
  8
I-HOLD
  5
3168
 10
247.664726
 20
-37.150064
 30
132.544323
 70
    64
  0
VERTEX
  8
I-HOLD
  5
3169
 10
245.900559
 20
-35.452839
 30
138.552526
 70
    64
  0
VERTEX
  8
I-HOLD
  5
316A
 10
245.900559
 20
-36.301451
 30
138.552526
 70
    64
  0
VERTEX
  8
I-HOLD
  5
316B
 10
245.900559
 20
-37.150064
 30
138.552526
 70
    64
  0
VERTEX
  8
I-HOLD
  5
316C
 10
245.900559
 20
-35.452839
 30
144.814379
 70
    64
  0
VERTEX
  8
I-HOLD
  5
316D
 10
245.900559
 20
-36.301451
 30
144.814379
 70
    64
  0
VERTEX
  8
I-HOLD
  5
316E
 10
245.900559
 20
-37.150064
 30
144.814379
 70
    64
  0
VERTEX
  8
I-HOLD
  5
316F
 10
247.664726
 20
-35.452839
 30
150.822583
 70
    64
  0
VERTEX
  8
I-HOLD
  5
3170
 10
247.664726
 20
-36.301451
 30
150.822583
 70
    64
  0
VERTEX
  8
I-HOLD
  5
3171
 10
247.664726
 20
-37.150064
 30
150.822583
 70
    64
  0
VERTEX
  8
I-HOLD
  5
3172
 10
251.05014
 20
-35.452839
 30
156.090389
 70
    64
  0
VERTEX
  8
I-HOLD
  5
3173
 10
251.05014
 20
-36.301451
 30
156.090389
 70
    64
  0
VERTEX
  8
I-HOLD
  5
3174
 10
251.05014
 20
-37.150064
 30
156.090389
 70
    64
  0
VERTEX
  8
I-HOLD
  5
3175
 10
255.782532
 20
-35.452839
 30
160.191031
 70
    64
  0
VERTEX
  8
I-HOLD
  5
3176
 10
255.782532
 20
-36.301451
 30
160.191031
 70
    64
  0
VERTEX
  8
I-HOLD
  5
3177
 10
255.782532
 20
-37.150064
 30
160.191031
 70
    64
  0
VERTEX
  8
I-HOLD
  5
3178
 10
261.478514
 20
-35.452839
 30
162.792298
 70
    64
  0
VERTEX
  8
I-HOLD
  5
3179
 10
261.478514
 20
-36.301451
 30
162.792298
 70
    64
  0
VERTEX
  8
I-HOLD
  5
317A
 10
261.478514
 20
-37.150064
 30
162.792298
 70
    64
  0
SEQEND
  8
I-HOLD
  5
317B
  0
LINE
  8
I-DISH
  5
3188
 10
267.67663
 20
-101.452839
 30
141.683453
 11
267.67663
 21
-101.452839
 31
126.683453
210
0.0
220
-1.0
230
0.0
  0
ARC
  8
I-DISH
  5
3191
 10
321.33496
 20
161.157954
 30
101.452839
 40
1.5
 50
268.637784
 51
88.637784
210
0.0
220
-1.0
230
0.0
  0
POLYLINE
  8
I-DISH
  5
3192
 66
     1
 10
0.0
 20
0.0
 30
101.452839
210
0.0
220
-1.0
230
0.0
  0
VERTEX
  8
I-DISH
  5
3193
 10
267.67663
 20
139.893357
 30
101.452839
 42
0.045118
  0
VERTEX
  8
I-DISH
  5
3194
 10
278.298955
 20
140.853823
 30
101.452839
 42
0.182248
  0
VERTEX
  8
I-DISH
  5
3196
 10
290.395749
 20
148.119594
 30
101.452839
 42
-0.235515
  0
VERTEX
  8
I-DISH
  5
3197
 10
321.37062
 20
162.65753
 30
101.452839
  0
SEQEND
  8
I-DISH
  5
3195
  0
POLYLINE
  8
I-DISH
  5
3198
 66
     1
 10
0.0
 20
0.0
 30
101.452839
210
0.0
220
-1.0
230
0.0
  0
VERTEX
  8
I-DISH
  5
3199
 10
321.299301
 20
159.658378
 30
101.452839
 42
0.277108
  0
VERTEX
  8
I-DISH
  5
319A
 10
289.67663
 20
141.683453
 30
101.452839
 42
-0.30847
  0
VERTEX
  8
I-DISH
  5
319C
 10
267.67663
 20
126.683453
 30
101.452839
  0
SEQEND
  8
I-DISH
  5
319B
  0
INSERT
  8
ASHADE
 62
     3
  5
3937
  2
AVE_RENDER
 10
424.978802
 20
115.42124
 30
0.0
1001
AVE_RENDER
1002
{
1070
     0
1000
Full Opt
1070
     0
1070
     1
1070
     1
1070
     1
1070
     0
1070
     0
1070
     0
1070
     1
1070
     1
1040
0.0001
1040
0.0001
1002
}
  0
INSERT
  8
ASHADE
 62
     4
  5
3938
  2
AVE_RENDER
 10
424.978802
 20
115.42124
 30
0.0
1001
AVE_RENDER
1002
{
1070
     0
1000
Quick Opt
1070
     0
1070
     1
1070
     1
1070
     1
1070
     0
1070
     0
1070
     1
1002
}
  0
INSERT
  8
ASHADE
 62
     5
  5
3939
  2
AVE_RENDER
 10
424.978802
 20
115.42124
 30
0.0
1001
AVE_RENDER
1002
{
1070
     1
1000
Scanl Opt
1070
     2
1070
     0
1070
     2
1040
2.0
1040
4.0
1070
     0
1070
     1
1070
     0
1040
0.03
1002
}
  0
INSERT
  8
ASHADE
 62
     6
  5
393A
  2
AVE_RENDER
 10
424.978802
 20
115.42124
 30
0.0
1001
AVE_RENDER
1002
{
1070
     2
1000
Raytr Opt
1070
     2
1070
     0
1070
     2
1040
2.0
1040
4.0
1070
     0
1070
     1
1070
     1
1040
0.03
1070
     3
1040
0.03
1002
}
  0
INSERT
  8
ASHADE
 62
     7
  5
393B
  2
AVE_RENDER
 10
424.978802
 20
115.42124
 30
0.0
1001
AVE_RENDER
1002
{
1070
     0
1000
RFile Opt
1070
     5
1070
   640
1070
   480
1070
 10000
1070
     3
1070
    32
1070
    24
1070
     0
1070
     0
1070
     0
1070
     1
1070
     0
1070
     0
1070
     0
1002
}
  0
INSERT
  8
ASHADE
 62
     8
  5
393C
  2
AVE_RENDER
 10
424.978802
 20
115.42124
 30
0.0
1001
AVE_RENDER
1002
{
1070
     0
1000
Fog Opt
1070
     0
1070
     0
1040
0.0
1040
1.0
1040
0.0
1040
1.0
1010
0.5
1020
0.5
1030
0.5
1002
}
  0
INSERT
  8
ASHADE
 62
     9
  5
393D
  2
AVE_RENDER
 10
424.978802
 20
115.42124
 30
0.0
1001
AVE_RENDER
1002
{
1070
     0
1000
BG Opt
1070
     0
1070
     1
1010
0.0
1020
0.0
1030
0.0
1010
1.0
1020
0.0
1030
0.0
1010
0.0
1020
1.0
1030
0.0
1010
0.0
1020
0.0
1030
1.0
1040
0.5
1040
0.33
1040
0.0
1000

1070
     1
1000

1070
     1
1070
     1
1040
1.0
1040
1.0
1040
0.0
1040
0.0
1070
     0
1002
}
  0
INSERT
  8
ASHADE
 62
     1
  5
393E
  2
AVE_GLOBAL
 10
424.978802
 20
115.42124
 30
0.0
1001
AVE_MATERIAL
1002
{
1000
*GLOBAL*
1000
1
1000
Global finish.
1002
{
1002
}
1002
{
1070
    63
1002
{
1002
{
1010
-1.0
1020
-1.0
1030
-1.0
1002
}
1040
0.1
1000

1040
0.0
1002
{
1002
}
1040
0.0
1002
{
1002
}
1040
0.0
1002
}
1002
{
1002
{
1010
-1.0
1020
-1.0
1030
-1.0
1002
}
1040
0.7
1000

1040
0.0
1002
{
1002
}
1040
0.0
1002
{
1002
}
1040
0.0
1002
}
1002
{
1002
{
1010
-1.0
1020
-1.0
1030
-1.0
1002
}
1040
0.2
1000

1040
0.0
1002
{
1002
}
1040
0.0
1002
{
1002
}
1040
0.0
1002
}
1002
{
1070
     0
1002
{
1070
     1
1002
{
1040
1.0
1040
1.0
1000

1040
0.0
1002
{
1002
}
1040
0.0
1002
{
1002
}
1040
0.0
1002
}
1002
}
1040
1.0
1040
0.0
1040
0.0
1002
}
1002
{
1040
1.0
1040
1.0
1000

1040
0.0
1002
{
1002
}
1040
0.0
1002
{
1002
}
1040
0.0
1002
}
1002
{
1040
0.5
1040
1.0
1000

1040
0.0
1002
{
1002
}
1040
0.0
1002
{
1002
}
1040
0.0
1002
}
1002
{
1070
     0
1040
0.0
1002
{
1002
}
1040
1.0
1002
{
1002
}
1040
0.0
1002
}
1002
{
1040
0.0
1002
{
1002
{
1010
0.0
1020
0.0
1030
0.0
1002
}
1040
1.0
1000

1040
0.0
1002
{
1002
}
1040
0.0
1002
{
1002
}
1040
0.0
1002
}
1002
}
1002
{
1002
{
1070
     1
1002
{
1040
0.0
1040
1.0
1000

1040
0.0
1002
{
1002
}
1040
0.0
1002
{
1002
}
1040
0.0
1002
}
1002
}
1040
0.0
1002
{
1002
}
1010
1.0
1020
0.0
1030
0.0
1010
0.0
1020
1.0
1030
0.0
1010
0.0
1020
0.0
1030
1.0
1070
     0
1002
}
1002
{
1002
{
1040
1.0
1040
1.0
1002
{
1070
     1
1002
{
1040
1.0
1040
1.0
1000

1040
0.0
1002
{
1002
}
1040
0.0
1002
{
1002
}
1040
0.0
1002
}
1002
}
1002
}
1070
     0
1040
0.0
1002
{
1002
}
1002
}
1002
{
1002
}
1002
}
1002
{
1071
        3
1070
     3
1070
     0
1002
{
1070
     2
1070
     0
1070
     0
1040
0.0
1002
}
1070
     0
1070
     2
1002
{
1002
}
1002
}
1002
{
1040
8030.0
1040
190.300003
1040
0.305
1040
228.0
1040
545.0
1040
14.0
1040
17.4
1040
0.456
1002
}
1002
}
  0
ARC
  8
I-SOAP
  5
393F
 10
310.499177
 20
57.793676
 30
-99.011846
 40
124.29954
 50
97.666009
 51
109.683382
210
-0.6457995996101595
220
-0.763506959459675
230
0.0
  0
ARC
  8
I-SOAP
  5
3940
 10
294.584827
 20
176.026978
 30
-99.011846
 40
5.0
 50
18.428103
 51
97.666009
210
-0.6457995996101595
220
-0.763506959459675
230
0.0
  0
ARC
  8
I-SOAP
  5
3941
 10
240.151259
 20
268.921514
 30
-99.011846
 40
124.29954
 50
287.172824
 51
299.190197
210
-0.6457995996101595
220
-0.763506959459675
230
0.0
  0
ARC
  8
I-SOAP
  5
3942
 10
298.334874
 20
164.772355
 30
-99.011846
 40
5.0
 50
299.190197
 51
18.428103
210
-0.6457995996101595
220
-0.763506959459675
230
0.0
  0
LINE
  8
I-SOAP
  5
3943
 10
292.481152
 20
-117.709948
 30
177.60755
 11
295.344339
 21
-120.131727
 31
166.352927
210
-0.6457995996101595
220
-0.763506959459675
230
0.0
  0
POLYLINE
  8
I-SOAP
  5
3944
 66
     1
 10
0.0
 20
0.0
 30
0.0
 70
    17
 71
    24
 72
     5
  0
VERTEX
  8
I-SOAP
  5
3945
 10
292.481152
 20
-117.709948
 30
177.60755
 70
    64
  0
VERTEX
  8
I-SOAP
  5
3946
 10
291.857863
 20
-117.18275
 30
179.121597
 70
    64
  0
VERTEX
  8
I-SOAP
  5
3947
 10
290.879702
 20
-116.355389
 30
180.269394
 70
    64
  0
VERTEX
  8
I-SOAP
  5
3948
 10
289.662434
 20
-115.325783
 30
180.915098
 70
    64
  0
VERTEX
  8
I-SOAP
  5
3949
 10
288.350123
 20
-114.215787
 30
180.982291
 70
    64
  0
VERTEX
  8
I-SOAP
  5
394A
 10
296.755055
 20
-111.155343
 30
177.28441
 70
    64
  0
VERTEX
  8
I-SOAP
  5
394B
 10
296.089614
 20
-110.69279
 30
178.801644
 70
    64
  0
VERTEX
  8
I-SOAP
  5
394C
 10
294.989987
 20
-110.051713
 30
179.958624
 70
    64
  0
VERTEX
  8
I-SOAP
  5
394D
 10
293.586314
 20
-109.307984
 30
180.618422
 70
    64
  0
VERTEX
  8
I-SOAP
  5
394E
 10
292.044721
 20
-108.549625
 30
180.702951
 70
    64
  0
VERTEX
  8
I-SOAP
  5
394F
 10
299.25679
 20
-103.794822
 30
176.337011
 70
    64
  0
VERTEX
  8
I-SOAP
  5
3950
 10
298.566676
 20
-103.404863
 30
177.863589
 70
    64
  0
VERTEX
  8
I-SOAP
  5
3951
 10
297.395949
 20
-102.972975
 30
179.047494
 70
    64
  0
VERTEX
  8
I-SOAP
  5
3952
 10
295.883163
 20
-102.550273
 30
179.748613
 70
    64
  0
VERTEX
  8
I-SOAP
  5
3953
 10
294.207359
 20
-102.186784
 30
179.883967
 70
    64
  0
VERTEX
  8
I-SOAP
  5
3954
 10
299.815869
 20
-96.129993
 30
174.829917
 70
    64
  0
VERTEX
  8
I-SOAP
  5
3955
 10
299.120241
 20
-95.815628
 30
176.371358
 70
    64
  0
VERTEX
  8
I-SOAP
  5
3956
 10
297.933624
 20
-95.601577
 30
177.598096
 70
    64
  0
VERTEX
  8
I-SOAP
  5
3957
 10
296.396455
 20
-95.513174
 30
178.364947
 70
    64
  0
VERTEX
  8
I-SOAP
  5
3958
 10
294.690658
 20
-95.560882
 30
178.581152
 70
    64
  0
VERTEX
  8
I-SOAP
  5
3959
 10
298.39419
 20
-88.6832
 30
172.865834
 70
    64
  0
VERTEX
  8
I-SOAP
  5
395A
 10
297.712584
 20
-88.442279
 30
174.426646
 70
    64
  0
VERTEX
  8
I-SOAP
  5
395B
 10
296.566372
 20
-88.43987
 30
175.709204
 70
    64
  0
VERTEX
  8
I-SOAP
  5
395C
 10
295.091208
 20
-88.676256
 30
176.561717
 70
    64
  0
VERTEX
  8
I-SOAP
  5
395D
 10
293.461681
 20
-89.123463
 30
176.88329
 70
    64
  0
VERTEX
  8
I-SOAP
  5
395E
 10
295.08864
 20
-81.961931
 30
170.578611
 70
    64
  0
VERTEX
  8
I-SOAP
  5
395F
 10
294.439635
 20
-81.787299
 30
172.161981
 70
    64
  0
VERTEX
  8
I-SOAP
  5
3960
 10
293.387367
 20
-81.975911
 30
173.509543
 70
    64
  0
VERTEX
  8
I-SOAP
  5
3961
 10
292.056375
 20
-82.505443
 30
174.461812
 70
    64
  0
VERTEX
  8
I-SOAP
  5
3962
 10
290.60418
 20
-83.313227
 30
174.906087
 70
    64
  0
VERTEX
  8
I-SOAP
  5
3963
 10
290.124485
 20
-76.424229
 30
168.124118
 70
    64
  0
VERTEX
  8
I-SOAP
  5
3964
 10
289.524439
 20
-76.304213
 30
169.731695
 70
    64
  0
VERTEX
  8
I-SOAP
  5
3965
 10
288.613255
 20
-76.650208
 30
171.149015
 70
    64
  0
VERTEX
  8
I-SOAP
  5
3966
 10
287.498773
 20
-77.421266
 30
172.208336
 70
    64
  0
VERTEX
  8
I-SOAP
  5
3967
 10
286.312891
 20
-78.526131
 30
172.784288
 70
    64
  0
VERTEX
  8
I-SOAP
  5
3968
 10
283.840025
 20
-72.447479
 30
165.669625
 70
    64
  0
VERTEX
  8
I-SOAP
  5
3969
 10
283.30196
 20
-72.366683
 30
167.30141
 70
    64
  0
VERTEX
  8
I-SOAP
  5
396A
 10
282.569383
 20
-72.825699
 30
168.788487
 70
    64
  0
VERTEX
  8
I-SOAP
  5
396B
 10
281.728995
 20
-73.770202
 30
169.95486
 70
    64
  0
VERTEX
  8
I-SOAP
  5
396C
 10
280.880257
 20
-75.088408
 30
170.662489
 70
    64
  0
VERTEX
  8
I-SOAP
  5
396D
 10
276.663536
 20
-70.302689
 30
163.382402
 70
    64
  0
VERTEX
  8
I-SOAP
  5
396E
 10
276.196249
 20
-70.243047
 30
165.036744
 70
    64
  0
VERTEX
  8
I-SOAP
  5
396F
 10
275.667631
 20
-70.763019
 30
166.588825
 70
    64
  0
VERTEX
  8
I-SOAP
  5
3970
 10
275.140243
 20
-71.801066
 30
167.854955
 70
    64
  0
VERTEX
  8
I-SOAP
  5
3971
 10
274.676503
 20
-73.234334
 30
168.685287
 70
    64
  0
VERTEX
  8
I-SOAP
  5
3972
 10
269.084083
 20
-70.136025
 30
161.418319
 70
    64
  0
VERTEX
  8
I-SOAP
  5
3973
 10
268.691548
 20
-70.078027
 30
163.092032
 70
    64
  0
VERTEX
  8
I-SOAP
  5
3974
 10
268.378341
 20
-70.602735
 30
164.699933
 70
    64
  0
VERTEX
  8
I-SOAP
  5
3975
 10
268.181529
 20
-71.648051
 30
166.051726
 70
    64
  0
VERTEX
  8
I-SOAP
  5
3976
 10
268.124405
 20
-73.09026
 30
166.987425
 70
    64
  0
VERTEX
  8
I-SOAP
  5
3977
 10
261.618193
 20
-71.958844
 30
159.911225
 70
    64
  0
VERTEX
  8
I-SOAP
  5
3978
 10
261.299291
 20
-71.882868
 30
161.599802
 70
    64
  0
VERTEX
  8
I-SOAP
  5
3979
 10
261.198267
 20
-72.355771
 30
163.250535
 70
    64
  0
VERTEX
  8
I-SOAP
  5
397A
 10
261.327078
 20
-73.321585
 30
164.668059
 70
    64
  0
VERTEX
  8
I-SOAP
  5
397B
 10
261.670477
 20
-74.666005
 30
165.68461
 70
    64
  0
VERTEX
  8
I-SOAP
  5
397C
 10
254.774654
 20
-75.646923
 30
158.963826
 70
    64
  0
VERTEX
  8
I-SOAP
  5
397D
 10
254.523247
 20
-75.534573
 30
160.661747
 70
    64
  0
VERTEX
  8
I-SOAP
  5
397E
 10
254.61672
 20
-75.90266
 30
162.339406
 70
    64
  0
VERTEX
  8
I-SOAP
  5
397F
 10
255.044009
 20
-76.70762
 30
163.79825
 70
    64
  0
VERTEX
  8
I-SOAP
  5
3980
 10
255.754544
 20
-77.854185
 30
164.865626
 70
    64
  0
VERTEX
  8
I-SOAP
  5
3981
 10
249.019843
 20
-80.948927
 30
158.640686
 70
    64
  0
VERTEX
  8
I-SOAP
  5
3982
 10
248.825193
 20
-80.784286
 30
160.341794
 70
    64
  0
VERTEX
  8
I-SOAP
  5
3983
 10
249.08222
 20
-81.001687
 30
162.028636
 70
    64
  0
VERTEX
  8
I-SOAP
  5
3984
 10
249.760503
 20
-81.575402
 30
163.501574
 70
    64
  0
VERTEX
  8
I-SOAP
  5
3985
 10
250.779768
 20
-82.43753
 30
164.586285
 70
    64
  0
VERTEX
  8
I-SOAP
  5
3986
 10
244.74594
 20
-87.503532
 30
158.963826
 70
    64
  0
VERTEX
  8
I-SOAP
  5
3987
 10
244.593442
 20
-87.274246
 30
160.661747
 70
    64
  0
VERTEX
  8
I-SOAP
  5
3988
 10
244.971934
 20
-87.305363
 30
162.339406
 70
    64
  0
VERTEX
  8
I-SOAP
  5
3989
 10
245.836622
 20
-87.5932
 30
163.79825
 70
    64
  0
VERTEX
  8
I-SOAP
  5
398A
 10
247.08517
 20
-88.103692
 30
164.865626
 70
    64
  0
VERTEX
  8
I-SOAP
  5
398B
 10
242.244205
 20
-94.864053
 30
159.911225
 70
    64
  0
VERTEX
  8
I-SOAP
  5
398C
 10
242.11638
 20
-94.562173
 30
161.599802
 70
    64
  0
VERTEX
  8
I-SOAP
  5
398D
 10
242.565973
 20
-94.384101
 30
163.250535
 70
    64
  0
VERTEX
  8
I-SOAP
  5
398E
 10
243.539773
 20
-94.350912
 30
164.668059
 70
    64
  0
VERTEX
  8
I-SOAP
  5
398F
 10
244.922532
 20
-94.466533
 30
165.68461
 70
    64
  0
VERTEX
  8
I-SOAP
  5
3990
 10
241.685126
 20
-102.528882
 30
161.418319
 70
    64
  0
VERTEX
  8
I-SOAP
  5
3991
 10
241.562815
 20
-102.151408
 30
163.092032
 70
    64
  0
VERTEX
  8
I-SOAP
  5
3992
 10
242.028297
 20
-101.755498
 30
164.699933
 70
    64
  0
VERTEX
  8
I-SOAP
  5
3993
 10
243.026482
 20
-101.38801
 30
166.051726
 70
    64
  0
VERTEX
  8
I-SOAP
  5
3994
 10
244.439233
 20
-101.092435
 30
166.987425
 70
    64
  0
VERTEX
  8
I-SOAP
  5
3995
 10
243.106804
 20
-109.975675
 30
163.382402
 70
    64
  0
VERTEX
  8
I-SOAP
  5
3996
 10
242.970472
 20
-109.524756
 30
165.036744
 70
    64
  0
VERTEX
  8
I-SOAP
  5
3997
 10
243.39555
 20
-108.917206
 30
166.588825
 70
    64
  0
VERTEX
  8
I-SOAP
  5
3998
 10
244.331728
 20
-108.224928
 30
167.854955
 70
    64
  0
VERTEX
  8
I-SOAP
  5
3999
 10
245.66821
 20
-107.529854
 30
168.685287
 70
    64
  0
VERTEX
  8
I-SOAP
  5
399A
 10
246.412355
 20
-116.696944
 30
165.669625
 70
    64
  0
VERTEX
  8
I-SOAP
  5
399B
 10
246.243422
 20
-116.179736
 30
167.30141
 70
    64
  0
VERTEX
  8
I-SOAP
  5
399C
 10
246.574554
 20
-115.381165
 30
168.788487
 70
    64
  0
VERTEX
  8
I-SOAP
  5
399D
 10
247.366562
 20
-114.395741
 30
169.95486
 70
    64
  0
VERTEX
  8
I-SOAP
  5
399E
 10
248.525711
 20
-113.34009
 30
170.662489
 70
    64
  0
VERTEX
  8
I-SOAP
  5
399F
 10
251.376509
 20
-122.234646
 30
168.124118
 70
    64
  0
VERTEX
  8
I-SOAP
  5
39A0
 10
251.158617
 20
-121.662823
 30
169.731695
 70
    64
  0
VERTEX
  8
I-SOAP
  5
39A1
 10
251.348666
 20
-120.706868
 30
171.149015
 70
    64
  0
VERTEX
  8
I-SOAP
  5
39A2
 10
251.924164
 20
-119.479919
 30
172.208336
 70
    64
  0
VERTEX
  8
I-SOAP
  5
39A3
 10
252.817
 20
-118.127186
 30
172.784288
 70
    64
  0
VERTEX
  8
I-SOAP
  5
39A4
 10
257.660969
 20
-126.211396
 30
170.578611
 70
    64
  0
VERTEX
  8
I-SOAP
  5
39A5
 10
257.381096
 20
-125.600352
 30
172.161981
 70
    64
  0
VERTEX
  8
I-SOAP
  5
39A6
 10
257.392538
 20
-124.531376
 30
173.509543
 70
    64
  0
VERTEX
  8
I-SOAP
  5
39A7
 10
257.693941
 20
-123.130983
 30
174.461812
 70
    64
  0
VERTEX
  8
I-SOAP
  5
39A8
 10
258.249634
 20
-121.564909
 30
174.906087
 70
    64
  0
VERTEX
  8
I-SOAP
  5
39A9
 10
264.837459
 20
-128.356186
 30
172.865834
 70
    64
  0
VERTEX
  8
I-SOAP
  5
39AA
 10
264.486807
 20
-127.723988
 30
174.426646
 70
    64
  0
VERTEX
  8
I-SOAP
  5
39AB
 10
264.294291
 20
-126.594057
 30
175.709204
 70
    64
  0
VERTEX
  8
I-SOAP
  5
39AC
 10
264.282693
 20
-125.100119
 30
176.561717
 70
    64
  0
VERTEX
  8
I-SOAP
  5
39AD
 10
264.453388
 20
-123.418983
 30
176.88329
 70
    64
  0
VERTEX
  8
I-SOAP
  5
39AE
 10
272.416912
 20
-128.52285
 30
174.829917
 70
    64
  0
VERTEX
  8
I-SOAP
  5
39AF
 10
271.991508
 20
-127.889009
 30
176.371358
 70
    64
  0
VERTEX
  8
I-SOAP
  5
39B0
 10
271.58358
 20
-126.75434
 30
177.598096
 70
    64
  0
VERTEX
  8
I-SOAP
  5
39B1
 10
271.241408
 20
-125.253133
 30
178.364947
 70
    64
  0
VERTEX
  8
I-SOAP
  5
39B2
 10
271.005486
 20
-123.563056
 30
178.581152
 70
    64
  0
VERTEX
  8
I-SOAP
  5
39B3
 10
279.882802
 20
-126.700031
 30
176.337011
 70
    64
  0
VERTEX
  8
I-SOAP
  5
39B4
 10
279.383765
 20
-126.084168
 30
177.863589
 70
    64
  0
VERTEX
  8
I-SOAP
  5
39B5
 10
278.763654
 20
-125.001305
 30
179.047494
 70
    64
  0
VERTEX
  8
I-SOAP
  5
39B6
 10
278.095859
 20
-123.579599
 30
179.748613
 70
    64
  0
VERTEX
  8
I-SOAP
  5
39B7
 10
277.459414
 20
-121.987311
 30
179.883967
 70
    64
  0
VERTEX
  8
I-SOAP
  5
39B8
 10
286.72634
 20
-123.011952
 30
177.28441
 70
    64
  0
VERTEX
  8
I-SOAP
  5
39B9
 10
286.159809
 20
-122.432462
 30
178.801644
 70
    64
  0
VERTEX
  8
I-SOAP
  5
39BA
 10
285.345201
 20
-121.454416
 30
179.958624
 70
    64
  0
VERTEX
  8
I-SOAP
  5
39BB
 10
284.378928
 20
-120.193565
 30
180.618422
 70
    64
  0
VERTEX
  8
I-SOAP
  5
39BC
 10
283.375347
 20
-118.799132
 30
180.702951
 70
    64
  0
SEQEND
  8
I-SOAP
  5
39BD
  0
POLYLINE
  8
I-SOAP
  5
39BE
 66
     1
 10
0.0
 20
0.0
 30
0.0
 70
    17
 71
    24
 72
     5
  0
VERTEX
  8
I-SOAP
  5
39BF
 10
293.584414
 20
-118.643124
 30
160.407327
 70
    64
  0
VERTEX
  8
I-SOAP
  5
39C0
 10
294.603679
 20
-119.505252
 30
161.492038
 70
    64
  0
VERTEX
  8
I-SOAP
  5
39C1
 10
295.281962
 20
-120.078967
 30
162.964977
 70
    64
  0
VERTEX
  8
I-SOAP
  5
39C2
 10
295.538988
 20
-120.296368
 30
164.651819
 70
    64
  0
VERTEX
  8
I-SOAP
  5
39C3
 10
295.344339
 20
-120.131727
 30
166.352927
 70
    64
  0
VERTEX
  8
I-SOAP
  5
39C4
 10
297.279012
 20
-112.976962
 30
160.127987
 70
    64
  0
VERTEX
  8
I-SOAP
  5
39C5
 10
298.527559
 20
-113.487454
 30
161.195363
 70
    64
  0
VERTEX
  8
I-SOAP
  5
39C6
 10
299.392247
 20
-113.775291
 30
162.654207
 70
    64
  0
VERTEX
  8
I-SOAP
  5
39C7
 10
299.77074
 20
-113.806408
 30
164.331866
 70
    64
  0
VERTEX
  8
I-SOAP
  5
39C8
 10
299.618242
 20
-113.577122
 30
166.029787
 70
    64
  0
VERTEX
  8
I-SOAP
  5
39C9
 10
299.44165
 20
-106.614121
 30
159.309003
 70
    64
  0
VERTEX
  8
I-SOAP
  5
39CA
 10
300.824408
 20
-106.729742
 30
160.325553
 70
    64
  0
VERTEX
  8
I-SOAP
  5
39CB
 10
301.798209
 20
-106.696553
 30
161.743078
 70
    64
  0
VERTEX
  8
I-SOAP
  5
39CC
 10
302.247802
 20
-106.518481
 30
163.393811
 70
    64
  0
VERTEX
  8
I-SOAP
  5
39CD
 10
302.119977
 20
-106.216601
 30
165.082388
 70
    64
  0
VERTEX
  8
I-SOAP
  5
39CE
 10
299.924948
 20
-99.988219
 30
158.006188
 70
    64
  0
VERTEX
  8
I-SOAP
  5
39CF
 10
301.3377
 20
-99.692644
 30
158.941887
 70
    64
  0
VERTEX
  8
I-SOAP
  5
39D0
 10
302.335884
 20
-99.325156
 30
160.29368
 70
    64
  0
VERTEX
  8
I-SOAP
  5
39D1
 10
302.801366
 20
-98.929246
 30
161.901581
 70
    64
  0
VERTEX
  8
I-SOAP
  5
39D2
 10
302.679056
 20
-98.551772
 30
163.575294
 70
    64
  0
VERTEX
  8
I-SOAP
  5
39D3
 10
298.695971
 20
-93.5508
 30
156.308326
 70
    64
  0
VERTEX
  8
I-SOAP
  5
39D4
 10
300.032454
 20
-92.855726
 30
157.138657
 70
    64
  0
VERTEX
  8
I-SOAP
  5
39D5
 10
300.968632
 20
-92.163448
 30
158.404787
 70
    64
  0
VERTEX
  8
I-SOAP
  5
39D6
 10
301.393709
 20
-91.555898
 30
159.956868
 70
    64
  0
VERTEX
  8
I-SOAP
  5
39D7
 10
301.257377
 20
-91.104979
 30
161.611211
 70
    64
  0
VERTEX
  8
I-SOAP
  5
39D8
 10
295.838471
 20
-87.740564
 30
154.331124
 70
    64
  0
VERTEX
  8
I-SOAP
  5
39D9
 10
296.99762
 20
-86.684913
 30
155.038752
 70
    64
  0
VERTEX
  8
I-SOAP
  5
39DA
 10
297.789628
 20
-85.699489
 30
156.205126
 70
    64
  0
VERTEX
  8
I-SOAP
  5
39DB
 10
298.12076
 20
-84.900917
 30
157.692203
 70
    64
  0
VERTEX
  8
I-SOAP
  5
39DC
 10
297.951827
 20
-84.38371
 30
159.323988
 70
    64
  0
VERTEX
  8
I-SOAP
  5
39DD
 10
291.547181
 20
-82.953468
 30
152.209325
 70
    64
  0
VERTEX
  8
I-SOAP
  5
39DE
 10
292.440018
 20
-81.600735
 30
152.785277
 70
    64
  0
VERTEX
  8
I-SOAP
  5
39DF
 10
293.015516
 20
-80.373786
 30
153.844598
 70
    64
  0
VERTEX
  8
I-SOAP
  5
39E0
 10
293.205565
 20
-79.417831
 30
155.261917
 70
    64
  0
VERTEX
  8
I-SOAP
  5
39E1
 10
292.987672
 20
-78.846008
 30
156.869495
 70
    64
  0
VERTEX
  8
I-SOAP
  5
39E2
 10
286.114547
 20
-79.515745
 30
150.087525
 70
    64
  0
VERTEX
  8
I-SOAP
  5
39E3
 10
286.67024
 20
-77.949671
 30
150.531801
 70
    64
  0
VERTEX
  8
I-SOAP
  5
39E4
 10
286.971643
 20
-76.549278
 30
151.48407
 70
    64
  0
VERTEX
  8
I-SOAP
  5
39E5
 10
286.983086
 20
-75.480302
 30
152.831632
 70
    64
  0
VERTEX
  8
I-SOAP
  5
39E6
 10
286.703212
 20
-74.869257
 30
154.415002
 70
    64
  0
VERTEX
  8
I-SOAP
  5
39E7
 10
279.910793
 20
-77.661671
 30
148.110323
 70
    64
  0
VERTEX
  8
I-SOAP
  5
39E8
 10
280.081488
 20
-75.980535
 30
148.431896
 70
    64
  0
VERTEX
  8
I-SOAP
  5
39E9
 10
280.069891
 20
-74.486597
 30
149.284409
 70
    64
  0
VERTEX
  8
I-SOAP
  5
39EA
 10
279.877374
 20
-73.356666
 30
150.566967
 70
    64
  0
VERTEX
  8
I-SOAP
  5
39EB
 10
279.526723
 20
-72.724468
 30
152.127778
 70
    64
  0
VERTEX
  8
I-SOAP
  5
39EC
 10
273.358695
 20
-77.517598
 30
146.412461
 70
    64
  0
VERTEX
  8
I-SOAP
  5
39ED
 10
273.122774
 20
-75.827521
 30
146.628666
 70
    64
  0
VERTEX
  8
I-SOAP
  5
39EE
 10
272.780601
 20
-74.326314
 30
147.395516
 70
    64
  0
VERTEX
  8
I-SOAP
  5
39EF
 10
272.372674
 20
-73.191645
 30
148.622254
 70
    64
  0
VERTEX
  8
I-SOAP
  5
39F0
 10
271.94727
 20
-72.557804
 30
150.163695
 70
    64
  0
VERTEX
  8
I-SOAP
  5
39F1
 10
266.904767
 20
-79.093343
 30
145.109646
 70
    64
  0
VERTEX
  8
I-SOAP
  5
39F2
 10
266.268323
 20
-77.501055
 30
145.245
 70
    64
  0
VERTEX
  8
I-SOAP
  5
39F3
 10
265.600528
 20
-76.079349
 30
145.946118
 70
    64
  0
VERTEX
  8
I-SOAP
  5
39F4
 10
264.980417
 20
-74.996486
 30
147.130024
 70
    64
  0
VERTEX
  8
I-SOAP
  5
39F5
 10
264.48138
 20
-74.380623
 30
148.656601
 70
    64
  0
VERTEX
  8
I-SOAP
  5
39F6
 10
260.988835
 20
-82.281522
 30
144.290662
 70
    64
  0
VERTEX
  8
I-SOAP
  5
39F7
 10
259.985254
 20
-80.887089
 30
144.37519
 70
    64
  0
VERTEX
  8
I-SOAP
  5
39F8
 10
259.01898
 20
-79.626238
 30
145.034989
 70
    64
  0
VERTEX
  8
I-SOAP
  5
39F9
 10
258.204373
 20
-78.648192
 30
146.191969
 70
    64
  0
VERTEX
  8
I-SOAP
  5
39FA
 10
257.637841
 20
-78.068702
 30
147.709202
 70
    64
  0
VERTEX
  8
I-SOAP
  5
39FB
 10
256.014058
 20
-86.864867
 30
144.011322
 70
    64
  0
VERTEX
  8
I-SOAP
  5
39FC
 10
254.701748
 20
-85.754871
 30
144.078515
 70
    64
  0
VERTEX
  8
I-SOAP
  5
39FD
 10
253.48448
 20
-84.725265
 30
144.724219
 70
    64
  0
VERTEX
  8
I-SOAP
  5
39FE
 10
252.506319
 20
-83.897904
 30
145.872016
 70
    64
  0
VERTEX
  8
I-SOAP
  5
39FF
 10
251.88303
 20
-83.370706
 30
147.386062
 70
    64
  0
VERTEX
  8
I-SOAP
  5
3A00
 10
252.31946
 20
-92.531029
 30
144.290662
 70
    64
  0
VERTEX
  8
I-SOAP
  5
3A01
 10
250.777867
 20
-91.77267
 30
144.37519
 70
    64
  0
VERTEX
  8
I-SOAP
  5
3A02
 10
249.374195
 20
-91.028941
 30
145.034989
 70
    64
  0
VERTEX
  8
I-SOAP
  5
3A03
 10
248.274567
 20
-90.387864
 30
146.191969
 70
    64
  0
VERTEX
  8
I-SOAP
  5
3A04
 10
247.609127
 20
-89.925311
 30
147.709202
 70
    64
  0
VERTEX
  8
I-SOAP
  5
3A05
 10
250.156822
 20
-98.89387
 30
145.109646
 70
    64
  0
VERTEX
  8
I-SOAP
  5
3A06
 10
248.481018
 20
-98.530381
 30
145.245
 70
    64
  0
VERTEX
  8
I-SOAP
  5
3A07
 10
246.968233
 20
-98.107679
 30
145.946118
 70
    64
  0
VERTEX
  8
I-SOAP
  5
3A08
 10
245.797505
 20
-97.675791
 30
147.130024
 70
    64
  0
VERTEX
  8
I-SOAP
  5
3A09
 10
245.107392
 20
-97.285832
 30
148.656601
 70
    64
  0
VERTEX
  8
I-SOAP
  5
3A0A
 10
249.673524
 20
-105.519772
 30
146.412461
 70
    64
  0
VERTEX
  8
I-SOAP
  5
3A0B
 10
247.967727
 20
-105.56748
 30
146.628666
 70
    64
  0
VERTEX
  8
I-SOAP
  5
3A0C
 10
246.430558
 20
-105.479077
 30
147.395516
 70
    64
  0
VERTEX
  8
I-SOAP
  5
3A0D
 10
245.243941
 20
-105.265026
 30
148.622254
 70
    64
  0
VERTEX
  8
I-SOAP
  5
3A0E
 10
244.548313
 20
-104.950661
 30
150.163695
 70
    64
  0
VERTEX
  8
I-SOAP
  5
3A0F
 10
250.902501
 20
-111.957191
 30
148.110323
 70
    64
  0
VERTEX
  8
I-SOAP
  5
3A10
 10
249.272973
 20
-112.404398
 30
148.431896
 70
    64
  0
VERTEX
  8
I-SOAP
  5
3A11
 10
247.79781
 20
-112.640784
 30
149.284409
 70
    64
  0
VERTEX
  8
I-SOAP
  5
3A12
 10
246.651598
 20
-112.638375
 30
150.566967
 70
    64
  0
VERTEX
  8
I-SOAP
  5
3A13
 10
245.969991
 20
-112.397454
 30
152.127778
 70
    64
  0
VERTEX
  8
I-SOAP
  5
3A14
 10
253.760001
 20
-117.767427
 30
150.087525
 70
    64
  0
VERTEX
  8
I-SOAP
  5
3A15
 10
252.307807
 20
-118.575211
 30
150.531801
 70
    64
  0
VERTEX
  8
I-SOAP
  5
3A16
 10
250.976814
 20
-119.104743
 30
151.48407
 70
    64
  0
VERTEX
  8
I-SOAP
  5
3A17
 10
249.924547
 20
-119.293355
 30
152.831632
 70
    64
  0
VERTEX
  8
I-SOAP
  5
3A18
 10
249.275542
 20
-119.118723
 30
154.415002
 70
    64
  0
VERTEX
  8
I-SOAP
  5
3A19
 10
258.051291
 20
-122.554523
 30
152.209325
 70
    64
  0
VERTEX
  8
I-SOAP
  5
3A1A
 10
256.865409
 20
-123.659388
 30
152.785277
 70
    64
  0
VERTEX
  8
I-SOAP
  5
3A1B
 10
255.750926
 20
-124.430446
 30
153.844598
 70
    64
  0
VERTEX
  8
I-SOAP
  5
3A1C
 10
254.839742
 20
-124.776441
 30
155.261917
 70
    64
  0
VERTEX
  8
I-SOAP
  5
3A1D
 10
254.239696
 20
-124.656425
 30
156.869495
 70
    64
  0
VERTEX
  8
I-SOAP
  5
3A1E
 10
263.483925
 20
-125.992246
 30
154.331124
 70
    64
  0
VERTEX
  8
I-SOAP
  5
3A1F
 10
262.635186
 20
-127.310452
 30
155.038752
 70
    64
  0
VERTEX
  8
I-SOAP
  5
3A20
 10
261.794798
 20
-128.254955
 30
156.205126
 70
    64
  0
VERTEX
  8
I-SOAP
  5
3A21
 10
261.062221
 20
-128.713971
 30
157.692203
 70
    64
  0
VERTEX
  8
I-SOAP
  5
3A22
 10
260.524156
 20
-128.633175
 30
159.323988
 70
    64
  0
VERTEX
  8
I-SOAP
  5
3A23
 10
269.687679
 20
-127.84632
 30
156.308326
 70
    64
  0
VERTEX
  8
I-SOAP
  5
3A24
 10
269.223939
 20
-129.279588
 30
157.138657
 70
    64
  0
VERTEX
  8
I-SOAP
  5
3A25
 10
268.696551
 20
-130.317635
 30
158.404787
 70
    64
  0
VERTEX
  8
I-SOAP
  5
3A26
 10
268.167932
 20
-130.837607
 30
159.956868
 70
    64
  0
VERTEX
  8
I-SOAP
  5
3A27
 10
267.700646
 20
-130.777964
 30
161.611211
 70
    64
  0
VERTEX
  8
I-SOAP
  5
3A28
 10
276.239777
 20
-127.990394
 30
158.006188
 70
    64
  0
VERTEX
  8
I-SOAP
  5
3A29
 10
276.182653
 20
-129.432603
 30
158.941887
 70
    64
  0
VERTEX
  8
I-SOAP
  5
3A2A
 10
275.98584
 20
-130.477919
 30
160.29368
 70
    64
  0
VERTEX
  8
I-SOAP
  5
3A2B
 10
275.672633
 20
-131.002627
 30
161.901581
 70
    64
  0
VERTEX
  8
I-SOAP
  5
3A2C
 10
275.280099
 20
-130.944629
 30
163.575294
 70
    64
  0
VERTEX
  8
I-SOAP
  5
3A2D
 10
282.693705
 20
-126.414648
 30
159.309003
 70
    64
  0
VERTEX
  8
I-SOAP
  5
3A2E
 10
283.037104
 20
-127.759069
 30
160.325553
 70
    64
  0
VERTEX
  8
I-SOAP
  5
3A2F
 10
283.165914
 20
-128.724883
 30
161.743078
 70
    64
  0
VERTEX
  8
I-SOAP
  5
3A30
 10
283.06489
 20
-129.197786
 30
163.393811
 70
    64
  0
VERTEX
  8
I-SOAP
  5
3A31
 10
282.745989
 20
-129.12181
 30
165.082388
 70
    64
  0
VERTEX
  8
I-SOAP
  5
3A32
 10
288.609637
 20
-123.226469
 30
160.127987
 70
    64
  0
VERTEX
  8
I-SOAP
  5
3A33
 10
289.320173
 20
-124.373034
 30
161.195363
 70
    64
  0
VERTEX
  8
I-SOAP
  5
3A34
 10
289.747462
 20
-125.177994
 30
162.654207
 70
    64
  0
VERTEX
  8
I-SOAP
  5
3A35
 10
289.840934
 20
-125.546081
 30
164.331866
 70
    64
  0
VERTEX
  8
I-SOAP
  5
3A36
 10
289.589527
 20
-125.433731
 30
166.029787
 70
    64
  0
SEQEND
  8
I-SOAP
  5
3A37
  0
POLYLINE
  8
I-SOAP
  5
3A38
 66
     1
 10
0.0
 20
0.0
 30
0.0
 70
    17
 71
    24
 72
     5
  0
VERTEX
  8
I-SOAP
  5
3A39
 10
293.584414
 20
-118.643124
 30
160.407327
 70
    64
  0
VERTEX
  8
I-SOAP
  5
3A3A
 10
289.178422
 20
-114.91639
 30
157.379165
 70
    64
  0
VERTEX
  8
I-SOAP
  5
3A3B
 10
284.657309
 20
-111.092282
 30
154.657618
 70
    64
  0
VERTEX
  8
I-SOAP
  5
3A3C
 10
280.033502
 20
-107.181312
 30
152.250168
 70
    64
  0
VERTEX
  8
I-SOAP
  5
3A3D
 10
275.319713
 20
-103.194232
 30
150.163432
 70
    64
  0
VERTEX
  8
I-SOAP
  5
3A3E
 10
297.279012
 20
-112.976962
 30
160.127987
 70
    64
  0
VERTEX
  8
I-SOAP
  5
3A3F
 10
291.956687
 20
-110.655547
 30
157.169107
 70
    64
  0
VERTEX
  8
I-SOAP
  5
3A40
 10
286.51267
 20
-108.246836
 30
154.517339
 70
    64
  0
VERTEX
  8
I-SOAP
  5
3A41
 10
280.961926
 20
-105.75745
 30
152.179972
 70
    64
  0
VERTEX
  8
I-SOAP
  5
3A42
 10
275.319713
 20
-103.194232
 30
150.163432
 70
    64
  0
VERTEX
  8
I-SOAP
  5
3A43
 10
299.44165
 20
-106.614121
 30
159.309003
 70
    64
  0
VERTEX
  8
I-SOAP
  5
3A44
 10
293.582948
 20
-105.870816
 30
156.553247
 70
    64
  0
VERTEX
  8
I-SOAP
  5
3A45
 10
287.598708
 20
-105.051531
 30
154.10606
 70
    64
  0
VERTEX
  8
I-SOAP
  5
3A46
 10
281.50538
 20
-104.158518
 30
151.974168
 70
    64
  0
VERTEX
  8
I-SOAP
  5
3A47
 10
275.319713
 20
-103.194232
 30
150.163432
 70
    64
  0
VERTEX
  8
I-SOAP
  5
3A48
 10
299.924948
 20
-99.988219
 30
158.006188
 70
    64
  0
VERTEX
  8
I-SOAP
  5
3A49
 10
293.946379
 20
-100.888269
 30
155.573556
 70
    64
  0
VERTEX
  8
I-SOAP
  5
3A4A
 10
287.841412
 20
-101.724122
 30
153.451809
 70
    64
  0
VERTEX
  8
I-SOAP
  5
3A4B
 10
281.626829
 20
-102.493481
 30
151.646781
 70
    64
  0
VERTEX
  8
I-SOAP
  5
3A4C
 10
275.319713
 20
-103.194232
 30
150.163432
 70
    64
  0
VERTEX
  8
I-SOAP
  5
3A4D
 10
298.695971
 20
-93.5508
 30
156.308326
 70
    64
  0
VERTEX
  8
I-SOAP
  5
3A4E
 10
293.022212
 20
-96.047456
 30
154.296797
 70
    64
  0
VERTEX
  8
I-SOAP
  5
3A4F
 10
287.224241
 20
-98.491365
 30
152.599173
 70
    64
  0
VERTEX
  8
I-SOAP
  5
3A50
 10
281.317996
 20
-100.875809
 30
151.220121
 70
    64
  0
VERTEX
  8
I-SOAP
  5
3A51
 10
275.319713
 20
-103.194232
 30
150.163432
 70
    64
  0
VERTEX
  8
I-SOAP
  5
3A52
 10
295.838471
 20
-87.740564
 30
154.331124
 70
    64
  0
VERTEX
  8
I-SOAP
  5
3A53
 10
290.873428
 20
-91.678273
 30
152.80998
 70
    64
  0
VERTEX
  8
I-SOAP
  5
3A54
 10
285.789256
 20
-95.573569
 30
151.606258
 70
    64
  0
VERTEX
  8
I-SOAP
  5
3A55
 10
280.599929
 20
-99.415742
 30
150.723266
 70
    64
  0
VERTEX
  8
I-SOAP
  5
3A56
 10
275.319713
 20
-103.194232
 30
150.163432
 70
    64
  0
VERTEX
  8
I-SOAP
  5
3A57
 10
291.547181
 20
-82.953468
 30
152.209325
 70
    64
  0
VERTEX
  8
I-SOAP
  5
3A58
 10
287.646463
 20
-88.078472
 30
151.214429
 70
    64
  0
VERTEX
  8
I-SOAP
  5
3A59
 10
283.634247
 20
-93.169575
 30
150.540728
 70
    64
  0
VERTEX
  8
I-SOAP
  5
3A5A
 10
279.521562
 20
-98.212783
 30
150.190075
 70
    64
  0
VERTEX
  8
I-SOAP
  5
3A5B
 10
275.319713
 20
-103.194232
 30
150.163432
 70
    64
  0
VERTEX
  8
I-SOAP
  5
3A5C
 10
286.114547
 20
-79.515745
 30
150.087525
 70
    64
  0
VERTEX
  8
I-SOAP
  5
3A5D
 10
283.561229
 20
-85.493372
 30
149.618877
 70
    64
  0
VERTEX
  8
I-SOAP
  5
3A5E
 10
280.906075
 20
-91.443212
 30
149.475198
 70
    64
  0
VERTEX
  8
I-SOAP
  5
3A5F
 10
278.156384
 20
-97.34891
 30
149.656883
 70
    64
  0
VERTEX
  8
I-SOAP
  5
3A60
 10
275.319713
 20
-103.194232
 30
150.163432
 70
    64
  0
VERTEX
  8
I-SOAP
  5
3A61
 10
279.910793
 20
-77.661671
 30
148.110323
 70
    64
  0
VERTEX
  8
I-SOAP
  5
3A62
 10
278.896129
 20
-84.099145
 30
148.13206
 70
    64
  0
VERTEX
  8
I-SOAP
  5
3A63
 10
277.790661
 20
-90.512129
 30
148.482283
 70
    64
  0
VERTEX
  8
I-SOAP
  5
3A64
 10
276.597429
 20
-96.882996
 30
149.160028
 70
    64
  0
VERTEX
  8
I-SOAP
  5
3A65
 10
275.319713
 20
-103.194232
 30
150.163432
 70
    64
  0
VERTEX
  8
I-SOAP
  5
3A66
 10
273.358695
 20
-77.517598
 30
146.412461
 70
    64
  0
VERTEX
  8
I-SOAP
  5
3A67
 10
273.96908
 20
-83.990804
 30
146.855302
 70
    64
  0
VERTEX
  8
I-SOAP
  5
3A68
 10
274.500315
 20
-90.439778
 30
147.629647
 70
    64
  0
VERTEX
  8
I-SOAP
  5
3A69
 10
274.950939
 20
-96.846791
 30
148.733368
 70
    64
  0
VERTEX
  8
I-SOAP
  5
3A6A
 10
275.319713
 20
-103.194232
 30
150.163432
 70
    64
  0
VERTEX
  8
I-SOAP
  5
3A6B
 10
266.904767
 20
-79.093343
 30
145.109646
 70
    64
  0
VERTEX
  8
I-SOAP
  5
3A6C
 10
269.115854
 20
-85.175734
 30
145.87561
 70
    64
  0
VERTEX
  8
I-SOAP
  5
3A6D
 10
271.259268
 20
-91.231089
 30
146.975396
 70
    64
  0
VERTEX
  8
I-SOAP
  5
3A6E
 10
273.329117
 20
-97.242764
 30
148.405981
 70
    64
  0
VERTEX
  8
I-SOAP
  5
3A6F
 10
275.319713
 20
-103.194232
 30
150.163432
 70
    64
  0
VERTEX
  8
I-SOAP
  5
3A70
 10
260.988835
 20
-82.281522
 30
144.290662
 70
    64
  0
VERTEX
  8
I-SOAP
  5
3A71
 10
264.667189
 20
-87.573182
 30
145.25975
 70
    64
  0
VERTEX
  8
I-SOAP
  5
3A72
 10
268.288392
 20
-92.832136
 30
146.564117
 70
    64
  0
VERTEX
  8
I-SOAP
  5
3A73
 10
271.84249
 20
-98.043928
 30
148.200177
 70
    64
  0
VERTEX
  8
I-SOAP
  5
3A74
 10
275.319713
 20
-103.194232
 30
150.163432
 70
    64
  0
VERTEX
  8
I-SOAP
  5
3A75
 10
256.014058
 20
-86.864867
 30
144.011322
 70
    64
  0
VERTEX
  8
I-SOAP
  5
3A76
 10
260.926255
 20
-91.019767
 30
145.049692
 70
    64
  0
VERTEX
  8
I-SOAP
  5
3A77
 10
265.790148
 20
-95.133809
 30
146.423838
 70
    64
  0
VERTEX
  8
I-SOAP
  5
3A78
 10
270.592368
 20
-99.195687
 30
148.129981
 70
    64
  0
VERTEX
  8
I-SOAP
  5
3A79
 10
275.319713
 20
-103.194232
 30
150.163432
 70
    64
  0
VERTEX
  8
I-SOAP
  5
3A7A
 10
252.31946
 20
-92.531029
 30
144.290662
 70
    64
  0
VERTEX
  8
I-SOAP
  5
3A7B
 10
258.14799
 20
-95.280609
 30
145.25975
 70
    64
  0
VERTEX
  8
I-SOAP
  5
3A7C
 10
263.934788
 20
-97.979255
 30
146.564117
 70
    64
  0
VERTEX
  8
I-SOAP
  5
3A7D
 10
269.663945
 20
-100.619549
 30
148.200177
 70
    64
  0
VERTEX
  8
I-SOAP
  5
3A7E
 10
275.319713
 20
-103.194232
 30
150.163432
 70
    64
  0
VERTEX
  8
I-SOAP
  5
3A7F
 10
250.156822
 20
-98.89387
 30
145.109646
 70
    64
  0
VERTEX
  8
I-SOAP
  5
3A80
 10
256.521729
 20
-100.06534
 30
145.87561
 70
    64
  0
VERTEX
  8
I-SOAP
  5
3A81
 10
262.848749
 20
-101.17456
 30
146.975396
 70
    64
  0
VERTEX
  8
I-SOAP
  5
3A82
 10
269.120491
 20
-102.21848
 30
148.405981
 70
    64
  0
VERTEX
  8
I-SOAP
  5
3A83
 10
275.319713
 20
-103.194232
 30
150.163432
 70
    64
  0
VERTEX
  8
I-SOAP
  5
3A84
 10
249.673524
 20
-105.519772
 30
146.412461
 70
    64
  0
VERTEX
  8
I-SOAP
  5
3A85
 10
256.158298
 20
-105.047888
 30
146.855302
 70
    64
  0
VERTEX
  8
I-SOAP
  5
3A86
 10
262.606046
 20
-104.501969
 30
147.629647
 70
    64
  0
VERTEX
  8
I-SOAP
  5
3A87
 10
268.999042
 20
-103.883517
 30
148.733368
 70
    64
  0
VERTEX
  8
I-SOAP
  5
3A88
 10
275.319713
 20
-103.194232
 30
150.163432
 70
    64
  0
VERTEX
  8
I-SOAP
  5
3A89
 10
250.902501
 20
-111.957191
 30
148.110323
 70
    64
  0
VERTEX
  8
I-SOAP
  5
3A8A
 10
257.082465
 20
-109.8887
 30
148.13206
 70
    64
  0
VERTEX
  8
I-SOAP
  5
3A8B
 10
263.223216
 20
-107.734726
 30
148.482283
 70
    64
  0
VERTEX
  8
I-SOAP
  5
3A8C
 10
269.307874
 20
-105.50119
 30
149.160028
 70
    64
  0
VERTEX
  8
I-SOAP
  5
3A8D
 10
275.319713
 20
-103.194232
 30
150.163432
 70
    64
  0
VERTEX
  8
I-SOAP
  5
3A8E
 10
253.760001
 20
-117.767427
 30
150.087525
 70
    64
  0
VERTEX
  8
I-SOAP
  5
3A8F
 10
259.231249
 20
-114.257883
 30
149.618877
 70
    64
  0
VERTEX
  8
I-SOAP
  5
3A90
 10
264.658201
 20
-110.652522
 30
149.475198
 70
    64
  0
VERTEX
  8
I-SOAP
  5
3A91
 10
270.025941
 20
-106.961257
 30
149.656883
 70
    64
  0
VERTEX
  8
I-SOAP
  5
3A92
 10
275.319713
 20
-103.194232
 30
150.163432
 70
    64
  0
VERTEX
  8
I-SOAP
  5
3A93
 10
258.051291
 20
-122.554523
 30
152.209325
 70
    64
  0
VERTEX
  8
I-SOAP
  5
3A94
 10
262.458214
 20
-117.857684
 30
151.214429
 70
    64
  0
VERTEX
  8
I-SOAP
  5
3A95
 10
266.81321
 20
-113.056516
 30
150.540728
 70
    64
  0
VERTEX
  8
I-SOAP
  5
3A96
 10
271.104308
 20
-108.164216
 30
150.190075
 70
    64
  0
VERTEX
  8
I-SOAP
  5
3A97
 10
275.319713
 20
-103.194232
 30
150.163432
 70
    64
  0
VERTEX
  8
I-SOAP
  5
3A98
 10
263.483925
 20
-125.992246
 30
154.331124
 70
    64
  0
VERTEX
  8
I-SOAP
  5
3A99
 10
266.543448
 20
-120.442784
 30
152.80998
 70
    64
  0
VERTEX
  8
I-SOAP
  5
3A9A
 10
269.541382
 20
-114.782879
 30
151.606258
 70
    64
  0
VERTEX
  8
I-SOAP
  5
3A9B
 10
272.469487
 20
-109.028089
 30
150.723266
 70
    64
  0
VERTEX
  8
I-SOAP
  5
3A9C
 10
275.319713
 20
-103.194232
 30
150.163432
 70
    64
  0
VERTEX
  8
I-SOAP
  5
3A9D
 10
269.687679
 20
-127.84632
 30
156.308326
 70
    64
  0
VERTEX
  8
I-SOAP
  5
3A9E
 10
271.208548
 20
-121.837011
 30
154.296797
 70
    64
  0
VERTEX
  8
I-SOAP
  5
3A9F
 10
272.656796
 20
-115.713962
 30
152.599173
 70
    64
  0
VERTEX
  8
I-SOAP
  5
3AA0
 10
274.028441
 20
-109.494003
 30
151.220121
 70
    64
  0
VERTEX
  8
I-SOAP
  5
3AA1
 10
275.319713
 20
-103.194232
 30
150.163432
 70
    64
  0
VERTEX
  8
I-SOAP
  5
3AA2
 10
276.239777
 20
-127.990394
 30
158.006188
 70
    64
  0
VERTEX
  8
I-SOAP
  5
3AA3
 10
276.135597
 20
-121.945352
 30
155.573556
 70
    64
  0
VERTEX
  8
I-SOAP
  5
3AA4
 10
275.947143
 20
-115.786313
 30
153.451809
 70
    64
  0
VERTEX
  8
I-SOAP
  5
3AA5
 10
275.674932
 20
-109.530207
 30
151.646781
 70
    64
  0
VERTEX
  8
I-SOAP
  5
3AA6
 10
275.319713
 20
-103.194232
 30
150.163432
 70
    64
  0
VERTEX
  8
I-SOAP
  5
3AA7
 10
282.693705
 20
-126.414648
 30
159.309003
 70
    64
  0
VERTEX
  8
I-SOAP
  5
3AA8
 10
280.988823
 20
-120.760423
 30
156.553247
 70
    64
  0
VERTEX
  8
I-SOAP
  5
3AA9
 10
279.188189
 20
-114.995002
 30
154.10606
 70
    64
  0
VERTEX
  8
I-SOAP
  5
3AAA
 10
277.296753
 20
-109.134235
 30
151.974168
 70
    64
  0
VERTEX
  8
I-SOAP
  5
3AAB
 10
275.319713
 20
-103.194232
 30
150.163432
 70
    64
  0
VERTEX
  8
I-SOAP
  5
3AAC
 10
288.609637
 20
-123.226469
 30
160.127987
 70
    64
  0
VERTEX
  8
I-SOAP
  5
3AAD
 10
285.437488
 20
-118.362974
 30
157.169107
 70
    64
  0
VERTEX
  8
I-SOAP
  5
3AAE
 10
282.159065
 20
-113.393955
 30
154.517339
 70
    64
  0
VERTEX
  8
I-SOAP
  5
3AAF
 10
278.78338
 20
-108.333071
 30
152.179972
 70
    64
  0
VERTEX
  8
I-SOAP
  5
3AB0
 10
275.319713
 20
-103.194232
 30
150.163432
 70
    64
  0
SEQEND
  8
I-SOAP
  5
3AB1
  0
POLYLINE
  8
I-SOAP
  5
3AB2
 66
     1
 10
0.0
 20
0.0
 30
0.0
 70
    17
 71
    24
 72
     5
  0
VERTEX
  8
I-SOAP
  5
3AB3
 10
288.350123
 20
-114.215787
 30
180.982291
 70
    64
  0
VERTEX
  8
I-SOAP
  5
3AB4
 10
283.437926
 20
-110.060887
 30
179.943921
 70
    64
  0
VERTEX
  8
I-SOAP
  5
3AB5
 10
278.574033
 20
-105.946845
 30
178.569775
 70
    64
  0
VERTEX
  8
I-SOAP
  5
3AB6
 10
273.771814
 20
-101.884967
 30
176.863632
 70
    64
  0
VERTEX
  8
I-SOAP
  5
3AB7
 10
269.044469
 20
-97.886422
 30
174.83018
 70
    64
  0
VERTEX
  8
I-SOAP
  5
3AB8
 10
292.044721
 20
-108.549625
 30
180.702951
 70
    64
  0
VERTEX
  8
I-SOAP
  5
3AB9
 10
286.216191
 20
-105.800045
 30
179.733862
 70
    64
  0
VERTEX
  8
I-SOAP
  5
3ABA
 10
280.429394
 20
-103.101399
 30
178.429495
 70
    64
  0
VERTEX
  8
I-SOAP
  5
3ABB
 10
274.700237
 20
-100.461105
 30
176.793436
 70
    64
  0
VERTEX
  8
I-SOAP
  5
3ABC
 10
269.044469
 20
-97.886422
 30
174.83018
 70
    64
  0
VERTEX
  8
I-SOAP
  5
3ABD
 10
294.207359
 20
-102.186784
 30
179.883967
 70
    64
  0
VERTEX
  8
I-SOAP
  5
3ABE
 10
287.842452
 20
-101.015314
 30
179.118003
 70
    64
  0
VERTEX
  8
I-SOAP
  5
3ABF
 10
281.515432
 20
-99.906094
 30
178.018216
 70
    64
  0
VERTEX
  8
I-SOAP
  5
3AC0
 10
275.243691
 20
-98.862174
 30
176.587631
 70
    64
  0
VERTEX
  8
I-SOAP
  5
3AC1
 10
269.044469
 20
-97.886422
 30
174.83018
 70
    64
  0
VERTEX
  8
I-SOAP
  5
3AC2
 10
294.690658
 20
-95.560882
 30
178.581152
 70
    64
  0
VERTEX
  8
I-SOAP
  5
3AC3
 10
288.205883
 20
-96.032766
 30
178.138311
 70
    64
  0
VERTEX
  8
I-SOAP
  5
3AC4
 10
281.758136
 20
-96.578685
 30
177.363966
 70
    64
  0
VERTEX
  8
I-SOAP
  5
3AC5
 10
275.36514
 20
-97.197137
 30
176.260244
 70
    64
  0
VERTEX
  8
I-SOAP
  5
3AC6
 10
269.044469
 20
-97.886422
 30
174.83018
 70
    64
  0
VERTEX
  8
I-SOAP
  5
3AC7
 10
293.461681
 20
-89.123463
 30
176.88329
 70
    64
  0
VERTEX
  8
I-SOAP
  5
3AC8
 10
287.281717
 20
-91.191954
 30
176.861552
 70
    64
  0
VERTEX
  8
I-SOAP
  5
3AC9
 10
281.140966
 20
-93.345928
 30
176.51133
 70
    64
  0
VERTEX
  8
I-SOAP
  5
3ACA
 10
275.056308
 20
-95.579464
 30
175.833585
 70
    64
  0
VERTEX
  8
I-SOAP
  5
3ACB
 10
269.044469
 20
-97.886422
 30
174.83018
 70
    64
  0
VERTEX
  8
I-SOAP
  5
3ACC
 10
290.60418
 20
-83.313227
 30
174.906087
 70
    64
  0
VERTEX
  8
I-SOAP
  5
3ACD
 10
285.132933
 20
-86.822771
 30
175.374735
 70
    64
  0
VERTEX
  8
I-SOAP
  5
3ACE
 10
279.70598
 20
-90.428132
 30
175.518414
 70
    64
  0
VERTEX
  8
I-SOAP
  5
3ACF
 10
274.33824
 20
-94.119397
 30
175.33673
 70
    64
  0
VERTEX
  8
I-SOAP
  5
3AD0
 10
269.044469
 20
-97.886422
 30
174.83018
 70
    64
  0
VERTEX
  8
I-SOAP
  5
3AD1
 10
286.312891
 20
-78.526131
 30
172.784288
 70
    64
  0
VERTEX
  8
I-SOAP
  5
3AD2
 10
281.905968
 20
-83.222969
 30
173.779184
 70
    64
  0
VERTEX
  8
I-SOAP
  5
3AD3
 10
277.550971
 20
-88.024138
 30
174.452885
 70
    64
  0
VERTEX
  8
I-SOAP
  5
3AD4
 10
273.259873
 20
-92.916438
 30
174.803538
 70
    64
  0
VERTEX
  8
I-SOAP
  5
3AD5
 10
269.044469
 20
-97.886422
 30
174.83018
 70
    64
  0
VERTEX
  8
I-SOAP
  5
3AD6
 10
280.880257
 20
-75.088408
 30
170.662489
 70
    64
  0
VERTEX
  8
I-SOAP
  5
3AD7
 10
277.820734
 20
-80.63787
 30
172.183633
 70
    64
  0
VERTEX
  8
I-SOAP
  5
3AD8
 10
274.8228
 20
-86.297775
 30
173.387355
 70
    64
  0
VERTEX
  8
I-SOAP
  5
3AD9
 10
271.894695
 20
-92.052565
 30
174.270347
 70
    64
  0
VERTEX
  8
I-SOAP
  5
3ADA
 10
269.044469
 20
-97.886422
 30
174.83018
 70
    64
  0
VERTEX
  8
I-SOAP
  5
3ADB
 10
274.676503
 20
-73.234334
 30
168.685287
 70
    64
  0
VERTEX
  8
I-SOAP
  5
3ADC
 10
273.155633
 20
-79.243643
 30
170.696816
 70
    64
  0
VERTEX
  8
I-SOAP
  5
3ADD
 10
271.707385
 20
-85.366692
 30
172.39444
 70
    64
  0
VERTEX
  8
I-SOAP
  5
3ADE
 10
270.33574
 20
-91.586651
 30
173.773491
 70
    64
  0
VERTEX
  8
I-SOAP
  5
3ADF
 10
269.044469
 20
-97.886422
 30
174.83018
 70
    64
  0
VERTEX
  8
I-SOAP
  5
3AE0
 10
268.124405
 20
-73.09026
 30
166.987425
 70
    64
  0
VERTEX
  8
I-SOAP
  5
3AE1
 10
268.228585
 20
-79.135302
 30
169.420057
 70
    64
  0
VERTEX
  8
I-SOAP
  5
3AE2
 10
268.417039
 20
-85.294341
 30
171.541804
 70
    64
  0
VERTEX
  8
I-SOAP
  5
3AE3
 10
268.68925
 20
-91.550447
 30
173.346832
 70
    64
  0
VERTEX
  8
I-SOAP
  5
3AE4
 10
269.044469
 20
-97.886422
 30
174.83018
 70
    64
  0
VERTEX
  8
I-SOAP
  5
3AE5
 10
261.670477
 20
-74.666005
 30
165.68461
 70
    64
  0
VERTEX
  8
I-SOAP
  5
3AE6
 10
263.375358
 20
-80.320231
 30
168.440366
 70
    64
  0
VERTEX
  8
I-SOAP
  5
3AE7
 10
265.175992
 20
-86.085652
 30
170.887553
 70
    64
  0
VERTEX
  8
I-SOAP
  5
3AE8
 10
267.067429
 20
-91.946419
 30
173.019445
 70
    64
  0
VERTEX
  8
I-SOAP
  5
3AE9
 10
269.044469
 20
-97.886422
 30
174.83018
 70
    64
  0
VERTEX
  8
I-SOAP
  5
3AEA
 10
255.754544
 20
-77.854185
 30
164.865626
 70
    64
  0
VERTEX
  8
I-SOAP
  5
3AEB
 10
258.926694
 20
-82.717679
 30
167.824506
 70
    64
  0
VERTEX
  8
I-SOAP
  5
3AEC
 10
262.205117
 20
-87.686699
 30
170.476274
 70
    64
  0
VERTEX
  8
I-SOAP
  5
3AED
 10
265.580801
 20
-92.747583
 30
172.813641
 70
    64
  0
VERTEX
  8
I-SOAP
  5
3AEE
 10
269.044469
 20
-97.886422
 30
174.83018
 70
    64
  0
VERTEX
  8
I-SOAP
  5
3AEF
 10
250.779768
 20
-82.43753
 30
164.586285
 70
    64
  0
VERTEX
  8
I-SOAP
  5
3AF0
 10
255.18576
 20
-86.164264
 30
167.614448
 70
    64
  0
VERTEX
  8
I-SOAP
  5
3AF1
 10
259.706873
 20
-89.988372
 30
170.335995
 70
    64
  0
VERTEX
  8
I-SOAP
  5
3AF2
 10
264.330679
 20
-93.899342
 30
172.743445
 70
    64
  0
VERTEX
  8
I-SOAP
  5
3AF3
 10
269.044469
 20
-97.886422
 30
174.83018
 70
    64
  0
VERTEX
  8
I-SOAP
  5
3AF4
 10
247.08517
 20
-88.103692
 30
164.865626
 70
    64
  0
VERTEX
  8
I-SOAP
  5
3AF5
 10
252.407495
 20
-90.425107
 30
167.824506
 70
    64
  0
VERTEX
  8
I-SOAP
  5
3AF6
 10
257.851512
 20
-92.833818
 30
170.476274
 70
    64
  0
VERTEX
  8
I-SOAP
  5
3AF7
 10
263.402256
 20
-95.323204
 30
172.813641
 70
    64
  0
VERTEX
  8
I-SOAP
  5
3AF8
 10
269.044469
 20
-97.886422
 30
174.83018
 70
    64
  0
VERTEX
  8
I-SOAP
  5
3AF9
 10
244.922532
 20
-94.466533
 30
165.68461
 70
    64
  0
VERTEX
  8
I-SOAP
  5
3AFA
 10
250.781234
 20
-95.209838
 30
168.440366
 70
    64
  0
VERTEX
  8
I-SOAP
  5
3AFB
 10
256.765474
 20
-96.029123
 30
170.887553
 70
    64
  0
VERTEX
  8
I-SOAP
  5
3AFC
 10
262.858802
 20
-96.922136
 30
173.019445
 70
    64
  0
VERTEX
  8
I-SOAP
  5
3AFD
 10
269.044469
 20
-97.886422
 30
174.83018
 70
    64
  0
VERTEX
  8
I-SOAP
  5
3AFE
 10
244.439233
 20
-101.092435
 30
166.987425
 70
    64
  0
VERTEX
  8
I-SOAP
  5
3AFF
 10
250.417803
 20
-100.192385
 30
169.420057
 70
    64
  0
VERTEX
  8
I-SOAP
  5
3B00
 10
256.52277
 20
-99.356532
 30
171.541804
 70
    64
  0
VERTEX
  8
I-SOAP
  5
3B01
 10
262.737353
 20
-98.587172
 30
173.346832
 70
    64
  0
VERTEX
  8
I-SOAP
  5
3B02
 10
269.044469
 20
-97.886422
 30
174.83018
 70
    64
  0
VERTEX
  8
I-SOAP
  5
3B03
 10
245.66821
 20
-107.529854
 30
168.685287
 70
    64
  0
VERTEX
  8
I-SOAP
  5
3B04
 10
251.341969
 20
-105.033198
 30
170.696816
 70
    64
  0
VERTEX
  8
I-SOAP
  5
3B05
 10
257.13994
 20
-102.589289
 30
172.39444
 70
    64
  0
VERTEX
  8
I-SOAP
  5
3B06
 10
263.046185
 20
-100.204845
 30
173.773491
 70
    64
  0
VERTEX
  8
I-SOAP
  5
3B07
 10
269.044469
 20
-97.886422
 30
174.83018
 70
    64
  0
VERTEX
  8
I-SOAP
  5
3B08
 10
248.525711
 20
-113.34009
 30
170.662489
 70
    64
  0
VERTEX
  8
I-SOAP
  5
3B09
 10
253.490753
 20
-109.402381
 30
172.183633
 70
    64
  0
VERTEX
  8
I-SOAP
  5
3B0A
 10
258.574926
 20
-105.507085
 30
173.387355
 70
    64
  0
VERTEX
  8
I-SOAP
  5
3B0B
 10
263.764252
 20
-101.664912
 30
174.270347
 70
    64
  0
VERTEX
  8
I-SOAP
  5
3B0C
 10
269.044469
 20
-97.886422
 30
174.83018
 70
    64
  0
VERTEX
  8
I-SOAP
  5
3B0D
 10
252.817
 20
-118.127186
 30
172.784288
 70
    64
  0
VERTEX
  8
I-SOAP
  5
3B0E
 10
256.717718
 20
-113.002182
 30
173.779184
 70
    64
  0
VERTEX
  8
I-SOAP
  5
3B0F
 10
260.729935
 20
-107.911079
 30
174.452885
 70
    64
  0
VERTEX
  8
I-SOAP
  5
3B10
 10
264.84262
 20
-102.867871
 30
174.803538
 70
    64
  0
VERTEX
  8
I-SOAP
  5
3B11
 10
269.044469
 20
-97.886422
 30
174.83018
 70
    64
  0
VERTEX
  8
I-SOAP
  5
3B12
 10
258.249634
 20
-121.564909
 30
174.906087
 70
    64
  0
VERTEX
  8
I-SOAP
  5
3B13
 10
260.802952
 20
-115.587282
 30
175.374735
 70
    64
  0
VERTEX
  8
I-SOAP
  5
3B14
 10
263.458106
 20
-109.637442
 30
175.518414
 70
    64
  0
VERTEX
  8
I-SOAP
  5
3B15
 10
266.207798
 20
-103.731744
 30
175.33673
 70
    64
  0
VERTEX
  8
I-SOAP
  5
3B16
 10
269.044469
 20
-97.886422
 30
174.83018
 70
    64
  0
VERTEX
  8
I-SOAP
  5
3B17
 10
264.453388
 20
-123.418983
 30
176.88329
 70
    64
  0
VERTEX
  8
I-SOAP
  5
3B18
 10
265.468053
 20
-116.981509
 30
176.861552
 70
    64
  0
VERTEX
  8
I-SOAP
  5
3B19
 10
266.57352
 20
-110.568525
 30
176.51133
 70
    64
  0
VERTEX
  8
I-SOAP
  5
3B1A
 10
267.766752
 20
-104.197658
 30
175.833585
 70
    64
  0
VERTEX
  8
I-SOAP
  5
3B1B
 10
269.044469
 20
-97.886422
 30
174.83018
 70
    64
  0
VERTEX
  8
I-SOAP
  5
3B1C
 10
271.005486
 20
-123.563056
 30
178.581152
 70
    64
  0
VERTEX
  8
I-SOAP
  5
3B1D
 10
270.395101
 20
-117.08985
 30
178.138311
 70
    64
  0
VERTEX
  8
I-SOAP
  5
3B1E
 10
269.863867
 20
-110.640876
 30
177.363966
 70
    64
  0
VERTEX
  8
I-SOAP
  5
3B1F
 10
269.413243
 20
-104.233863
 30
176.260244
 70
    64
  0
VERTEX
  8
I-SOAP
  5
3B20
 10
269.044469
 20
-97.886422
 30
174.83018
 70
    64
  0
VERTEX
  8
I-SOAP
  5
3B21
 10
277.459414
 20
-121.987311
 30
179.883967
 70
    64
  0
VERTEX
  8
I-SOAP
  5
3B22
 10
275.248328
 20
-115.90492
 30
179.118003
 70
    64
  0
VERTEX
  8
I-SOAP
  5
3B23
 10
273.104914
 20
-109.849565
 30
178.018216
 70
    64
  0
VERTEX
  8
I-SOAP
  5
3B24
 10
271.035064
 20
-103.83789
 30
176.587631
 70
    64
  0
VERTEX
  8
I-SOAP
  5
3B25
 10
269.044469
 20
-97.886422
 30
174.83018
 70
    64
  0
VERTEX
  8
I-SOAP
  5
3B26
 10
283.375347
 20
-118.799132
 30
180.702951
 70
    64
  0
VERTEX
  8
I-SOAP
  5
3B27
 10
279.696992
 20
-113.507472
 30
179.733862
 70
    64
  0
VERTEX
  8
I-SOAP
  5
3B28
 10
276.075789
 20
-108.248518
 30
178.429495
 70
    64
  0
VERTEX
  8
I-SOAP
  5
3B29
 10
272.521691
 20
-103.036726
 30
176.793436
 70
    64
  0
VERTEX
  8
I-SOAP
  5
3B2A
 10
269.044469
 20
-97.886422
 30
174.83018
 70
    64
  0
SEQEND
  8
I-SOAP
  5
3B2B
  0
POLYLINE
  8
I-SOAP
  5
3B2C
 66
     1
 10
0.0
 20
0.0
 30
0.0
 70
    17
 71
    24
 72
     3
  0
VERTEX
  8
I-SOAP
  5
3B2D
 10
295.344339
 20
-120.131727
 30
166.352927
 70
    64
  0
VERTEX
  8
I-SOAP
  5
3B2E
 10
293.912745
 20
-118.920838
 30
171.980239
 70
    64
  0
VERTEX
  8
I-SOAP
  5
3B2F
 10
292.481152
 20
-117.709948
 30
177.60755
 70
    64
  0
VERTEX
  8
I-SOAP
  5
3B30
 10
299.618242
 20
-113.577122
 30
166.029787
 70
    64
  0
VERTEX
  8
I-SOAP
  5
3B31
 10
298.186648
 20
-112.366233
 30
171.657099
 70
    64
  0
VERTEX
  8
I-SOAP
  5
3B32
 10
296.755055
 20
-111.155343
 30
177.28441
 70
    64
  0
VERTEX
  8
I-SOAP
  5
3B33
 10
302.119977
 20
-106.216601
 30
165.082388
 70
    64
  0
VERTEX
  8
I-SOAP
  5
3B34
 10
300.688383
 20
-105.005712
 30
170.7097
 70
    64
  0
VERTEX
  8
I-SOAP
  5
3B35
 10
299.25679
 20
-103.794822
 30
176.337011
 70
    64
  0
VERTEX
  8
I-SOAP
  5
3B36
 10
302.679056
 20
-98.551772
 30
163.575294
 70
    64
  0
VERTEX
  8
I-SOAP
  5
3B37
 10
301.247462
 20
-97.340882
 30
169.202606
 70
    64
  0
VERTEX
  8
I-SOAP
  5
3B38
 10
299.815869
 20
-96.129993
 30
174.829917
 70
    64
  0
VERTEX
  8
I-SOAP
  5
3B39
 10
301.257377
 20
-91.104979
 30
161.611211
 70
    64
  0
VERTEX
  8
I-SOAP
  5
3B3A
 10
299.825784
 20
-89.89409
 30
167.238523
 70
    64
  0
VERTEX
  8
I-SOAP
  5
3B3B
 10
298.39419
 20
-88.6832
 30
172.865834
 70
    64
  0
VERTEX
  8
I-SOAP
  5
3B3C
 10
297.951827
 20
-84.38371
 30
159.323988
 70
    64
  0
VERTEX
  8
I-SOAP
  5
3B3D
 10
296.520233
 20
-83.17282
 30
164.951299
 70
    64
  0
VERTEX
  8
I-SOAP
  5
3B3E
 10
295.08864
 20
-81.961931
 30
170.578611
 70
    64
  0
VERTEX
  8
I-SOAP
  5
3B3F
 10
292.987672
 20
-78.846008
 30
156.869495
 70
    64
  0
VERTEX
  8
I-SOAP
  5
3B40
 10
291.556079
 20
-77.635118
 30
162.496806
 70
    64
  0
VERTEX
  8
I-SOAP
  5
3B41
 10
290.124485
 20
-76.424229
 30
168.124118
 70
    64
  0
VERTEX
  8
I-SOAP
  5
3B42
 10
286.703212
 20
-74.869257
 30
154.415002
 70
    64
  0
VERTEX
  8
I-SOAP
  5
3B43
 10
285.271619
 20
-73.658368
 30
160.042313
 70
    64
  0
VERTEX
  8
I-SOAP
  5
3B44
 10
283.840025
 20
-72.447479
 30
165.669625
 70
    64
  0
VERTEX
  8
I-SOAP
  5
3B45
 10
279.526723
 20
-72.724468
 30
152.127778
 70
    64
  0
VERTEX
  8
I-SOAP
  5
3B46
 10
278.095129
 20
-71.513579
 30
157.75509
 70
    64
  0
VERTEX
  8
I-SOAP
  5
3B47
 10
276.663536
 20
-70.302689
 30
163.382402
 70
    64
  0
VERTEX
  8
I-SOAP
  5
3B48
 10
271.94727
 20
-72.557804
 30
150.163695
 70
    64
  0
VERTEX
  8
I-SOAP
  5
3B49
 10
270.515676
 20
-71.346915
 30
155.791007
 70
    64
  0
VERTEX
  8
I-SOAP
  5
3B4A
 10
269.084083
 20
-70.136025
 30
161.418319
 70
    64
  0
VERTEX
  8
I-SOAP
  5
3B4B
 10
264.48138
 20
-74.380623
 30
148.656601
 70
    64
  0
VERTEX
  8
I-SOAP
  5
3B4C
 10
263.049786
 20
-73.169733
 30
154.283913
 70
    64
  0
VERTEX
  8
I-SOAP
  5
3B4D
 10
261.618193
 20
-71.958844
 30
159.911225
 70
    64
  0
VERTEX
  8
I-SOAP
  5
3B4E
 10
257.637841
 20
-78.068702
 30
147.709202
 70
    64
  0
VERTEX
  8
I-SOAP
  5
3B4F
 10
256.206248
 20
-76.857813
 30
153.336514
 70
    64
  0
VERTEX
  8
I-SOAP
  5
3B50
 10
254.774654
 20
-75.646923
 30
158.963826
 70
    64
  0
VERTEX
  8
I-SOAP
  5
3B51
 10
251.88303
 20
-83.370706
 30
147.386062
 70
    64
  0
VERTEX
  8
I-SOAP
  5
3B52
 10
250.451436
 20
-82.159816
 30
153.013374
 70
    64
  0
VERTEX
  8
I-SOAP
  5
3B53
 10
249.019843
 20
-80.948927
 30
158.640686
 70
    64
  0
VERTEX
  8
I-SOAP
  5
3B54
 10
247.609127
 20
-89.925311
 30
147.709202
 70
    64
  0
VERTEX
  8
I-SOAP
  5
3B55
 10
246.177534
 20
-88.714421
 30
153.336514
 70
    64
  0
VERTEX
  8
I-SOAP
  5
3B56
 10
244.74594
 20
-87.503532
 30
158.963826
 70
    64
  0
VERTEX
  8
I-SOAP
  5
3B57
 10
245.107392
 20
-97.285832
 30
148.656601
 70
    64
  0
VERTEX
  8
I-SOAP
  5
3B58
 10
243.675798
 20
-96.074942
 30
154.283913
 70
    64
  0
VERTEX
  8
I-SOAP
  5
3B59
 10
242.244205
 20
-94.864053
 30
159.911225
 70
    64
  0
VERTEX
  8
I-SOAP
  5
3B5A
 10
244.548313
 20
-104.950661
 30
150.163695
 70
    64
  0
VERTEX
  8
I-SOAP
  5
3B5B
 10
243.116719
 20
-103.739772
 30
155.791007
 70
    64
  0
VERTEX
  8
I-SOAP
  5
3B5C
 10
241.685126
 20
-102.528882
 30
161.418319
 70
    64
  0
VERTEX
  8
I-SOAP
  5
3B5D
 10
245.969991
 20
-112.397454
 30
152.127778
 70
    64
  0
VERTEX
  8
I-SOAP
  5
3B5E
 10
244.538398
 20
-111.186564
 30
157.75509
 70
    64
  0
VERTEX
  8
I-SOAP
  5
3B5F
 10
243.106804
 20
-109.975675
 30
163.382402
 70
    64
  0
VERTEX
  8
I-SOAP
  5
3B60
 10
249.275542
 20
-119.118723
 30
154.415002
 70
    64
  0
VERTEX
  8
I-SOAP
  5
3B61
 10
247.843948
 20
-117.907833
 30
160.042313
 70
    64
  0
VERTEX
  8
I-SOAP
  5
3B62
 10
246.412355
 20
-116.696944
 30
165.669625
 70
    64
  0
VERTEX
  8
I-SOAP
  5
3B63
 10
254.239696
 20
-124.656425
 30
156.869495
 70
    64
  0
VERTEX
  8
I-SOAP
  5
3B64
 10
252.808103
 20
-123.445536
 30
162.496806
 70
    64
  0
VERTEX
  8
I-SOAP
  5
3B65
 10
251.376509
 20
-122.234646
 30
168.124118
 70
    64
  0
VERTEX
  8
I-SOAP
  5
3B66
 10
260.524156
 20
-128.633175
 30
159.323988
 70
    64
  0
VERTEX
  8
I-SOAP
  5
3B67
 10
259.092563
 20
-127.422286
 30
164.951299
 70
    64
  0
VERTEX
  8
I-SOAP
  5
3B68
 10
257.660969
 20
-126.211396
 30
170.578611
 70
    64
  0
VERTEX
  8
I-SOAP
  5
3B69
 10
267.700646
 20
-130.777964
 30
161.611211
 70
    64
  0
VERTEX
  8
I-SOAP
  5
3B6A
 10
266.269052
 20
-129.567075
 30
167.238523
 70
    64
  0
VERTEX
  8
I-SOAP
  5
3B6B
 10
264.837459
 20
-128.356186
 30
172.865834
 70
    64
  0
VERTEX
  8
I-SOAP
  5
3B6C
 10
275.280099
 20
-130.944629
 30
163.575294
 70
    64
  0
VERTEX
  8
I-SOAP
  5
3B6D
 10
273.848506
 20
-129.733739
 30
169.202606
 70
    64
  0
VERTEX
  8
I-SOAP
  5
3B6E
 10
272.416912
 20
-128.52285
 30
174.829917
 70
    64
  0
VERTEX
  8
I-SOAP
  5
3B6F
 10
282.745989
 20
-129.12181
 30
165.082388
 70
    64
  0
VERTEX
  8
I-SOAP
  5
3B70
 10
281.314395
 20
-127.910921
 30
170.7097
 70
    64
  0
VERTEX
  8
I-SOAP
  5
3B71
 10
279.882802
 20
-126.700031
 30
176.337011
 70
    64
  0
VERTEX
  8
I-SOAP
  5
3B72
 10
289.589527
 20
-125.433731
 30
166.029787
 70
    64
  0
VERTEX
  8
I-SOAP
  5
3B73
 10
288.157934
 20
-124.222841
 30
171.657099
 70
    64
  0
VERTEX
  8
I-SOAP
  5
3B74
 10
286.72634
 20
-123.011952
 30
177.28441
 70
    64
  0
SEQEND
  8
I-SOAP
  5
3B75
  0
POLYLINE
  8
I-DISH
  5
3B76
 66
     1
 10
0.0
 20
0.0
 30
0.0
 70
    17
 71
    22
 72
     5
  0
VERTEX
  8
I-DISH
  5
3B77
 10
321.37062
 20
-101.452839
 30
162.65753
 70
    64
  0
VERTEX
  8
I-DISH
  5
3B78
 10
322.420536
 20
-101.452839
 30
162.1931
 70
    64
  0
VERTEX
  8
I-DISH
  5
3B79
 10
322.834536
 20
-101.452839
 30
161.122295
 70
    64
  0
VERTEX
  8
I-DISH
  5
3B7A
 10
322.370106
 20
-101.452839
 30
160.072379
 70
    64
  0
VERTEX
  8
I-DISH
  5
3B7B
 10
321.299301
 20
-101.452839
 30
159.658378
 70
    64
  0
VERTEX
  8
I-DISH
  5
3B7C
 10
319.195636
 20
-116.580184
 30
162.65753
 70
    64
  0
VERTEX
  8
I-DISH
  5
3B7D
 10
320.203023
 20
-116.87598
 30
162.1931
 70
    64
  0
VERTEX
  8
I-DISH
  5
3B7E
 10
320.600254
 20
-116.992617
 30
161.122295
 70
    64
  0
VERTEX
  8
I-DISH
  5
3B7F
 10
320.154636
 20
-116.861772
 30
160.072379
 70
    64
  0
VERTEX
  8
I-DISH
  5
3B80
 10
319.127206
 20
-116.560091
 30
159.658378
 70
    64
  0
VERTEX
  8
I-DISH
  5
3B81
 10
312.846889
 20
-130.482002
 30
162.65753
 70
    64
  0
VERTEX
  8
I-DISH
  5
3B82
 10
313.730134
 20
-131.049629
 30
162.1931
 70
    64
  0
VERTEX
  8
I-DISH
  5
3B83
 10
314.078414
 20
-131.273455
 30
161.122295
 70
    64
  0
VERTEX
  8
I-DISH
  5
3B84
 10
313.68771
 20
-131.022365
 30
160.072379
 70
    64
  0
VERTEX
  8
I-DISH
  5
3B85
 10
312.786891
 20
-130.443444
 30
159.658378
 70
    64
  0
VERTEX
  8
I-DISH
  5
3B86
 10
302.838716
 20
-142.032049
 30
162.65753
 70
    64
  0
VERTEX
  8
I-DISH
  5
3B87
 10
303.526264
 20
-142.825523
 30
162.1931
 70
    64
  0
VERTEX
  8
I-DISH
  5
3B88
 10
303.797377
 20
-143.138403
 30
161.122295
 70
    64
  0
VERTEX
  8
I-DISH
  5
3B89
 10
303.49324
 20
-142.78741
 30
160.072379
 70
    64
  0
VERTEX
  8
I-DISH
  5
3B8A
 10
302.792012
 20
-141.97815
 30
159.658378
 70
    64
  0
VERTEX
  8
I-DISH
  5
3B8B
 10
289.98192
 20
-150.29461
 30
162.65753
 70
    64
  0
VERTEX
  8
I-DISH
  5
3B8C
 10
290.418071
 20
-151.249647
 30
162.1931
 70
    64
  0
VERTEX
  8
I-DISH
  5
3B8D
 10
290.590053
 20
-151.626236
 30
161.122295
 70
    64
  0
VERTEX
  8
I-DISH
  5
3B8E
 10
290.397121
 20
-151.203775
 30
160.072379
 70
    64
  0
VERTEX
  8
I-DISH
  5
3B8F
 10
289.952293
 20
-150.229736
 30
159.658378
 70
    64
  0
VERTEX
  8
I-DISH
  5
3B90
 10
275.318082
 20
-154.600301
 30
162.65753
 70
    64
  0
VERTEX
  8
I-DISH
  5
3B91
 10
275.4675
 20
-155.639531
 30
162.1931
 70
    64
  0
VERTEX
  8
I-DISH
  5
3B92
 10
275.526419
 20
-156.049317
 30
161.122295
 70
    64
  0
VERTEX
  8
I-DISH
  5
3B93
 10
275.460323
 20
-155.589614
 30
160.072379
 70
    64
  0
VERTEX
  8
I-DISH
  5
3B94
 10
275.307932
 20
-154.529709
 30
159.658378
 70
    64
  0
VERTEX
  8
I-DISH
  5
3B95
 10
260.035179
 20
-154.600301
 30
162.65753
 70
    64
  0
VERTEX
  8
I-DISH
  5
3B96
 10
259.88576
 20
-155.639531
 30
162.1931
 70
    64
  0
VERTEX
  8
I-DISH
  5
3B97
 10
259.826842
 20
-156.049317
 30
161.122295
 70
    64
  0
VERTEX
  8
I-DISH
  5
3B98
 10
259.892937
 20
-155.589614
 30
160.072379
 70
    64
  0
VERTEX
  8
I-DISH
  5
3B99
 10
260.045329
 20
-154.529709
 30
159.658378
 70
    64
  0
VERTEX
  8
I-DISH
  5
3B9A
 10
245.371341
 20
-150.29461
 30
162.65753
 70
    64
  0
VERTEX
  8
I-DISH
  5
3B9B
 10
244.93519
 20
-151.249647
 30
162.1931
 70
    64
  0
VERTEX
  8
I-DISH
  5
3B9C
 10
244.763208
 20
-151.626236
 30
161.122295
 70
    64
  0
VERTEX
  8
I-DISH
  5
3B9D
 10
244.956139
 20
-151.203775
 30
160.072379
 70
    64
  0
VERTEX
  8
I-DISH
  5
3B9E
 10
245.400968
 20
-150.229736
 30
159.658378
 70
    64
  0
VERTEX
  8
I-DISH
  5
3B9F
 10
232.514545
 20
-142.032049
 30
162.65753
 70
    64
  0
VERTEX
  8
I-DISH
  5
3BA0
 10
231.826996
 20
-142.825523
 30
162.1931
 70
    64
  0
VERTEX
  8
I-DISH
  5
3BA1
 10
231.555883
 20
-143.138403
 30
161.122295
 70
    64
  0
VERTEX
  8
I-DISH
  5
3BA2
 10
231.860021
 20
-142.78741
 30
160.072379
 70
    64
  0
VERTEX
  8
I-DISH
  5
3BA3
 10
232.561249
 20
-141.97815
 30
159.658378
 70
    64
  0
VERTEX
  8
I-DISH
  5
3BA4
 10
222.506372
 20
-130.482002
 30
162.65753
 70
    64
  0
VERTEX
  8
I-DISH
  5
3BA5
 10
221.623126
 20
-131.049629
 30
162.1931
 70
    64
  0
VERTEX
  8
I-DISH
  5
3BA6
 10
221.274847
 20
-131.273455
 30
161.122295
 70
    64
  0
VERTEX
  8
I-DISH
  5
3BA7
 10
221.665551
 20
-131.022365
 30
160.072379
 70
    64
  0
VERTEX
  8
I-DISH
  5
3BA8
 10
222.566369
 20
-130.443444
 30
159.658378
 70
    64
  0
VERTEX
  8
I-DISH
  5
3BA9
 10
216.157625
 20
-116.580184
 30
162.65753
 70
    64
  0
VERTEX
  8
I-DISH
  5
3BAA
 10
215.150238
 20
-116.87598
 30
162.1931
 70
    64
  0
VERTEX
  8
I-DISH
  5
3BAB
 10
214.753007
 20
-116.992617
 30
161.122295
 70
    64
  0
VERTEX
  8
I-DISH
  5
3BAC
 10
215.198625
 20
-116.861772
 30
160.072379
 70
    64
  0
VERTEX
  8
I-DISH
  5
3BAD
 10
216.226054
 20
-116.560091
 30
159.658378
 70
    64
  0
VERTEX
  8
I-DISH
  5
3BAE
 10
213.982641
 20
-101.452839
 30
162.65753
 70
    64
  0
VERTEX
  8
I-DISH
  5
3BAF
 10
212.932725
 20
-101.452839
 30
162.1931
 70
    64
  0
VERTEX
  8
I-DISH
  5
3BB0
 10
212.518724
 20
-101.452839
 30
161.122295
 70
    64
  0
VERTEX
  8
I-DISH
  5
3BB1
 10
212.983155
 20
-101.452839
 30
160.072379
 70
    64
  0
VERTEX
  8
I-DISH
  5
3BB2
 10
214.05396
 20
-101.452839
 30
159.658378
 70
    64
  0
VERTEX
  8
I-DISH
  5
3BB3
 10
216.157625
 20
-86.325494
 30
162.65753
 70
    64
  0
VERTEX
  8
I-DISH
  5
3BB4
 10
215.150238
 20
-86.029699
 30
162.1931
 70
    64
  0
VERTEX
  8
I-DISH
  5
3BB5
 10
214.753007
 20
-85.913061
 30
161.122295
 70
    64
  0
VERTEX
  8
I-DISH
  5
3BB6
 10
215.198625
 20
-86.043907
 30
160.072379
 70
    64
  0
VERTEX
  8
I-DISH
  5
3BB7
 10
216.226054
 20
-86.345587
 30
159.658378
 70
    64
  0
VERTEX
  8
I-DISH
  5
3BB8
 10
222.506372
 20
-72.423677
 30
162.65753
 70
    64
  0
VERTEX
  8
I-DISH
  5
3BB9
 10
221.623126
 20
-71.856049
 30
162.1931
 70
    64
  0
VERTEX
  8
I-DISH
  5
3BBA
 10
221.274847
 20
-71.632224
 30
161.122295
 70
    64
  0
VERTEX
  8
I-DISH
  5
3BBB
 10
221.665551
 20
-71.883314
 30
160.072379
 70
    64
  0
VERTEX
  8
I-DISH
  5
3BBC
 10
222.566369
 20
-72.462235
 30
159.658378
 70
    64
  0
VERTEX
  8
I-DISH
  5
3BBD
 10
232.514545
 20
-60.87363
 30
162.65753
 70
    64
  0
VERTEX
  8
I-DISH
  5
3BBE
 10
231.826996
 20
-60.080156
 30
162.1931
 70
    64
  0
VERTEX
  8
I-DISH
  5
3BBF
 10
231.555883
 20
-59.767275
 30
161.122295
 70
    64
  0
VERTEX
  8
I-DISH
  5
3BC0
 10
231.860021
 20
-60.118268
 30
160.072379
 70
    64
  0
VERTEX
  8
I-DISH
  5
3BC1
 10
232.561249
 20
-60.927529
 30
159.658378
 70
    64
  0
VERTEX
  8
I-DISH
  5
3BC2
 10
245.371341
 20
-52.611068
 30
162.65753
 70
    64
  0
VERTEX
  8
I-DISH
  5
3BC3
 10
244.93519
 20
-51.656031
 30
162.1931
 70
    64
  0
VERTEX
  8
I-DISH
  5
3BC4
 10
244.763208
 20
-51.279443
 30
161.122295
 70
    64
  0
VERTEX
  8
I-DISH
  5
3BC5
 10
244.956139
 20
-51.701904
 30
160.072379
 70
    64
  0
VERTEX
  8
I-DISH
  5
3BC6
 10
245.400968
 20
-52.675942
 30
159.658378
 70
    64
  0
VERTEX
  8
I-DISH
  5
3BC7
 10
260.035179
 20
-48.305377
 30
162.65753
 70
    64
  0
VERTEX
  8
I-DISH
  5
3BC8
 10
259.88576
 20
-47.266148
 30
162.1931
 70
    64
  0
VERTEX
  8
I-DISH
  5
3BC9
 10
259.826842
 20
-46.856361
 30
161.122295
 70
    64
  0
VERTEX
  8
I-DISH
  5
3BCA
 10
259.892937
 20
-47.316064
 30
160.072379
 70
    64
  0
VERTEX
  8
I-DISH
  5
3BCB
 10
260.045329
 20
-48.37597
 30
159.658378
 70
    64
  0
VERTEX
  8
I-DISH
  5
3BCC
 10
275.318082
 20
-48.305377
 30
162.65753
 70
    64
  0
VERTEX
  8
I-DISH
  5
3BCD
 10
275.4675
 20
-47.266148
 30
162.1931
 70
    64
  0
VERTEX
  8
I-DISH
  5
3BCE
 10
275.526419
 20
-46.856361
 30
161.122295
 70
    64
  0
VERTEX
  8
I-DISH
  5
3BCF
 10
275.460323
 20
-47.316064
 30
160.072379
 70
    64
  0
VERTEX
  8
I-DISH
  5
3BD0
 10
275.307932
 20
-48.37597
 30
159.658378
 70
    64
  0
VERTEX
  8
I-DISH
  5
3BD1
 10
289.98192
 20
-52.611068
 30
162.65753
 70
    64
  0
VERTEX
  8
I-DISH
  5
3BD2
 10
290.418071
 20
-51.656031
 30
162.1931
 70
    64
  0
VERTEX
  8
I-DISH
  5
3BD3
 10
290.590053
 20
-51.279443
 30
161.122295
 70
    64
  0
VERTEX
  8
I-DISH
  5
3BD4
 10
290.397121
 20
-51.701904
 30
160.072379
 70
    64
  0
VERTEX
  8
I-DISH
  5
3BD5
 10
289.952293
 20
-52.675942
 30
159.658378
 70
    64
  0
VERTEX
  8
I-DISH
  5
3BD6
 10
302.838716
 20
-60.87363
 30
162.65753
 70
    64
  0
VERTEX
  8
I-DISH
  5
3BD7
 10
303.526264
 20
-60.080156
 30
162.1931
 70
    64
  0
VERTEX
  8
I-DISH
  5
3BD8
 10
303.797377
 20
-59.767275
 30
161.122295
 70
    64
  0
VERTEX
  8
I-DISH
  5
3BD9
 10
303.49324
 20
-60.118268
 30
160.072379
 70
    64
  0
VERTEX
  8
I-DISH
  5
3BDA
 10
302.792012
 20
-60.927529
 30
159.658378
 70
    64
  0
VERTEX
  8
I-DISH
  5
3BDB
 10
312.846889
 20
-72.423677
 30
162.65753
 70
    64
  0
VERTEX
  8
I-DISH
  5
3BDC
 10
313.730134
 20
-71.856049
 30
162.1931
 70
    64
  0
VERTEX
  8
I-DISH
  5
3BDD
 10
314.078414
 20
-71.632224
 30
161.122295
 70
    64
  0
VERTEX
  8
I-DISH
  5
3BDE
 10
313.68771
 20
-71.883314
 30
160.072379
 70
    64
  0
VERTEX
  8
I-DISH
  5
3BDF
 10
312.786891
 20
-72.462235
 30
159.658378
 70
    64
  0
VERTEX
  8
I-DISH
  5
3BE0
 10
319.195636
 20
-86.325494
 30
162.65753
 70
    64
  0
VERTEX
  8
I-DISH
  5
3BE1
 10
320.203023
 20
-86.029699
 30
162.1931
 70
    64
  0
VERTEX
  8
I-DISH
  5
3BE2
 10
320.600254
 20
-85.913061
 30
161.122295
 70
    64
  0
VERTEX
  8
I-DISH
  5
3BE3
 10
320.154636
 20
-86.043907
 30
160.072379
 70
    64
  0
VERTEX
  8
I-DISH
  5
3BE4
 10
319.127206
 20
-86.345587
 30
159.658378
 70
    64
  0
SEQEND
  8
I-DISH
  5
3BE5
  0
POLYLINE
  8
I-DISH
  5
3BE6
 66
     1
 10
0.0
 20
0.0
 30
0.0
 70
    17
 71
    22
 72
    13
  0
VERTEX
  8
I-DISH
  5
3BE7
 10
267.67663
 20
-101.452839
 30
139.893357
 70
    64
  0
VERTEX
  8
I-DISH
  5
3BE8
 10
270.345758
 20
-101.452839
 30
139.953539
 70
    64
  0
VERTEX
  8
I-DISH
  5
3BE9
 10
273.00946
 20
-101.452839
 30
140.133963
 70
    64
  0
VERTEX
  8
I-DISH
  5
3BEA
 10
275.662323
 20
-101.452839
 30
140.434261
 70
    64
  0
VERTEX
  8
I-DISH
  5
3BEB
 10
278.298955
 20
-101.452839
 30
140.853823
 70
    64
  0
VERTEX
  8
I-DISH
  5
3BEC
 10
281.768553
 20
-101.452839
 30
141.815868
 70
    64
  0
VERTEX
  8
I-DISH
  5
3BED
 10
285.009437
 20
-101.452839
 30
143.384402
 70
    64
  0
VERTEX
  8
I-DISH
  5
3BEE
 10
287.916575
 20
-101.452839
 30
145.508592
 70
    64
  0
VERTEX
  8
I-DISH
  5
3BEF
 10
290.395749
 20
-101.452839
 30
148.119594
 70
    64
  0
VERTEX
  8
I-DISH
  5
3BF0
 10
296.649414
 20
-101.452839
 30
154.37798
 70
    64
  0
VERTEX
  8
I-DISH
  5
3BF1
 10
304.171232
 20
-101.452839
 30
159.036089
 70
    64
  0
VERTEX
  8
I-DISH
  5
3BF2
 10
312.560577
 20
-101.452839
 30
161.845823
 70
    64
  0
VERTEX
  8
I-DISH
  5
3BF3
 10
321.37062
 20
-101.452839
 30
162.65753
 70
    64
  0
VERTEX
  8
I-DISH
  5
3BF4
 10
267.67663
 20
-101.452839
 30
139.893357
 70
    64
  0
VERTEX
  8
I-DISH
  5
3BF5
 10
270.237639
 20
-102.204819
 30
139.953539
 70
    64
  0
VERTEX
  8
I-DISH
  5
3BF6
 10
272.793443
 20
-102.955271
 30
140.133963
 70
    64
  0
VERTEX
  8
I-DISH
  5
3BF7
 10
275.338846
 20
-103.702669
 30
140.434261
 70
    64
  0
VERTEX
  8
I-DISH
  5
3BF8
 10
277.868677
 20
-104.445494
 30
140.853823
 70
    64
  0
VERTEX
  8
I-DISH
  5
3BF9
 10
281.197731
 20
-105.422993
 30
141.815868
 70
    64
  0
VERTEX
  8
I-DISH
  5
3BFA
 10
284.307337
 20
-106.336055
 30
143.384402
 70
    64
  0
VERTEX
  8
I-DISH
  5
3BFB
 10
287.096715
 20
-107.155091
 30
145.508592
 70
    64
  0
VERTEX
  8
I-DISH
  5
3BFC
 10
289.475465
 20
-107.853555
 30
148.119594
 70
    64
  0
VERTEX
  8
I-DISH
  5
3BFD
 10
295.475813
 20
-109.615416
 30
154.37798
 70
    64
  0
VERTEX
  8
I-DISH
  5
3BFE
 10
302.692944
 20
-111.734557
 30
159.036089
 70
    64
  0
VERTEX
  8
I-DISH
  5
3BFF
 10
310.742462
 20
-114.098108
 30
161.845823
 70
    64
  0
VERTEX
  8
I-DISH
  5
3C00
 10
319.195636
 20
-116.580184
 30
162.65753
 70
    64
  0
VERTEX
  8
I-DISH
  5
3C01
 10
267.67663
 20
-101.452839
 30
139.893357
 70
    64
  0
VERTEX
  8
I-DISH
  5
3C02
 10
269.922043
 20
-102.895878
 30
139.953539
 70
    64
  0
VERTEX
  8
I-DISH
  5
3C03
 10
272.162892
 20
-104.335985
 30
140.133963
 70
    64
  0
VERTEX
  8
I-DISH
  5
3C04
 10
274.394623
 20
-105.770231
 30
140.434261
 70
    64
  0
VERTEX
  8
I-DISH
  5
3C05
 10
276.612699
 20
-107.195702
 30
140.853823
 70
    64
  0
VERTEX
  8
I-DISH
  5
3C06
 10
279.53151
 20
-109.071508
 30
141.815868
 70
    64
  0
VERTEX
  8
I-DISH
  5
3C07
 10
282.257915
 20
-110.823662
 30
143.384402
 70
    64
  0
VERTEX
  8
I-DISH
  5
3C08
 10
284.703556
 20
-112.39538
 30
145.508592
 70
    64
  0
VERTEX
  8
I-DISH
  5
3C09
 10
286.789169
 20
-113.735722
 30
148.119594
 70
    64
  0
VERTEX
  8
I-DISH
  5
3C0A
 10
292.050087
 20
-117.116709
 30
154.37798
 70
    64
  0
VERTEX
  8
I-DISH
  5
3C0B
 10
298.377843
 20
-121.18331
 30
159.036089
 70
    64
  0
VERTEX
  8
I-DISH
  5
3C0C
 10
305.435409
 20
-125.718933
 30
161.845823
 70
    64
  0
VERTEX
  8
I-DISH
  5
3C0D
 10
312.846889
 20
-130.482002
 30
162.65753
 70
    64
  0
VERTEX
  8
I-DISH
  5
3C0E
 10
267.67663
 20
-101.452839
 30
139.893357
 70
    64
  0
VERTEX
  8
I-DISH
  5
3C0F
 10
269.424537
 20
-103.470031
 30
139.953539
 70
    64
  0
VERTEX
  8
I-DISH
  5
3C10
 10
271.168891
 20
-105.483123
 30
140.133963
 70
    64
  0
VERTEX
  8
I-DISH
  5
3C11
 10
272.906147
 20
-107.488023
 30
140.434261
 70
    64
  0
VERTEX
  8
I-DISH
  5
3C12
 10
274.632774
 20
-109.480657
 30
140.853823
 70
    64
  0
VERTEX
  8
I-DISH
  5
3C13
 10
276.904877
 20
-112.102804
 30
141.815868
 70
    64
  0
VERTEX
  8
I-DISH
  5
3C14
 10
279.027205
 20
-114.552101
 30
143.384402
 70
    64
  0
VERTEX
  8
I-DISH
  5
3C15
 10
280.930976
 20
-116.749169
 30
145.508592
 70
    64
  0
VERTEX
  8
I-DISH
  5
3C16
 10
282.554489
 20
-118.622804
 30
148.119594
 70
    64
  0
VERTEX
  8
I-DISH
  5
3C17
 10
286.649769
 20
-123.349008
 30
154.37798
 70
    64
  0
VERTEX
  8
I-DISH
  5
3C18
 10
291.575512
 20
-129.033619
 30
159.036089
 70
    64
  0
VERTEX
  8
I-DISH
  5
3C19
 10
297.069365
 20
-135.373863
 30
161.845823
 70
    64
  0
VERTEX
  8
I-DISH
  5
3C1A
 10
302.838716
 20
-142.032049
 30
162.65753
 70
    64
  0
VERTEX
  8
I-DISH
  5
3C1B
 10
267.67663
 20
-101.452839
 30
139.893357
 70
    64
  0
VERTEX
  8
I-DISH
  5
3C1C
 10
268.785426
 20
-103.880763
 30
139.953539
 70
    64
  0
VERTEX
  8
I-DISH
  5
3C1D
 10
269.891968
 20
-106.303752
 30
140.133963
 70
    64
  0
VERTEX
  8
I-DISH
  5
3C1E
 10
270.994007
 20
-108.716881
 30
140.434261
 70
    64
  0
VERTEX
  8
I-DISH
  5
3C1F
 10
272.089304
 20
-111.115246
 30
140.853823
 70
    64
  0
VERTEX
  8
I-DISH
  5
3C20
 10
273.530626
 20
-114.271303
 30
141.815868
 70
    64
  0
VERTEX
  8
I-DISH
  5
3C21
 10
274.876939
 20
-117.219315
 30
143.384402
 70
    64
  0
VERTEX
  8
I-DISH
  5
3C22
 10
276.084607
 20
-119.863741
 30
145.508592
 70
    64
  0
VERTEX
  8
I-DISH
  5
3C23
 10
277.114493
 20
-122.118877
 30
148.119594
 70
    64
  0
VERTEX
  8
I-DISH
  5
3C24
 10
279.71236
 20
-127.80741
 30
154.37798
 70
    64
  0
VERTEX
  8
I-DISH
  5
3C25
 10
282.837036
 20
-134.649496
 30
159.036089
 70
    64
  0
VERTEX
  8
I-DISH
  5
3C26
 10
286.322096
 20
-142.280713
 30
161.845823
 70
    64
  0
VERTEX
  8
I-DISH
  5
3C27
 10
289.98192
 20
-150.29461
 30
162.65753
 70
    64
  0
VERTEX
  8
I-DISH
  5
3C28
 10
267.67663
 20
-101.452839
 30
139.893357
 70
    64
  0
VERTEX
  8
I-DISH
  5
3C29
 10
268.056487
 20
-104.094799
 30
139.953539
 70
    64
  0
VERTEX
  8
I-DISH
  5
3C2A
 10
268.435571
 20
-106.731388
 30
140.133963
 70
    64
  0
VERTEX
  8
I-DISH
  5
3C2B
 10
268.813113
 20
-109.357249
 30
140.434261
 70
    64
  0
VERTEX
  8
I-DISH
  5
3C2C
 10
269.188345
 20
-111.967044
 30
140.853823
 70
    64
  0
VERTEX
  8
I-DISH
  5
3C2D
 10
269.68212
 20
-115.401326
 30
141.815868
 70
    64
  0
VERTEX
  8
I-DISH
  5
3C2E
 10
270.143346
 20
-118.609223
 30
143.384402
 70
    64
  0
VERTEX
  8
I-DISH
  5
3C2F
 10
270.557075
 20
-121.486771
 30
145.508592
 70
    64
  0
VERTEX
  8
I-DISH
  5
3C30
 10
270.909898
 20
-123.94071
 30
148.119594
 70
    64
  0
VERTEX
  8
I-DISH
  5
3C31
 10
271.799887
 20
-130.130722
 30
154.37798
 70
    64
  0
VERTEX
  8
I-DISH
  5
3C32
 10
272.870354
 20
-137.575978
 30
159.036089
 70
    64
  0
VERTEX
  8
I-DISH
  5
3C33
 10
274.064282
 20
-145.879932
 30
161.845823
 70
    64
  0
VERTEX
  8
I-DISH
  5
3C34
 10
275.318082
 20
-154.600301
 30
162.65753
 70
    64
  0
VERTEX
  8
I-DISH
  5
3C35
 10
267.67663
 20
-101.452839
 30
139.893357
 70
    64
  0
VERTEX
  8
I-DISH
  5
3C36
 10
267.296774
 20
-104.094799
 30
139.953539
 70
    64
  0
VERTEX
  8
I-DISH
  5
3C37
 10
266.917689
 20
-106.731388
 30
140.133963
 70
    64
  0
VERTEX
  8
I-DISH
  5
3C38
 10
266.540148
 20
-109.357249
 30
140.434261
 70
    64
  0
VERTEX
  8
I-DISH
  5
3C39
 10
266.164916
 20
-111.967044
 30
140.853823
 70
    64
  0
VERTEX
  8
I-DISH
  5
3C3A
 10
265.671141
 20
-115.401326
 30
141.815868
 70
    64
  0
VERTEX
  8
I-DISH
  5
3C3B
 10
265.209915
 20
-118.609223
 30
143.384402
 70
    64
  0
VERTEX
  8
I-DISH
  5
3C3C
 10
264.796186
 20
-121.486771
 30
145.508592
 70
    64
  0
VERTEX
  8
I-DISH
  5
3C3D
 10
264.443363
 20
-123.94071
 30
148.119594
 70
    64
  0
VERTEX
  8
I-DISH
  5
3C3E
 10
263.553373
 20
-130.130722
 30
154.37798
 70
    64
  0
VERTEX
  8
I-DISH
  5
3C3F
 10
262.482907
 20
-137.575978
 30
159.036089
 70
    64
  0
VERTEX
  8
I-DISH
  5
3C40
 10
261.288979
 20
-145.879932
 30
161.845823
 70
    64
  0
VERTEX
  8
I-DISH
  5
3C41
 10
260.035179
 20
-154.600301
 30
162.65753
 70
    64
  0
VERTEX
  8
I-DISH
  5
3C42
 10
267.67663
 20
-101.452839
 30
139.893357
 70
    64
  0
VERTEX
  8
I-DISH
  5
3C43
 10
266.567835
 20
-103.880763
 30
139.953539
 70
    64
  0
VERTEX
  8
I-DISH
  5
3C44
 10
265.461293
 20
-106.303752
 30
140.133963
 70
    64
  0
VERTEX
  8
I-DISH
  5
3C45
 10
264.359254
 20
-108.716881
 30
140.434261
 70
    64
  0
VERTEX
  8
I-DISH
  5
3C46
 10
263.263957
 20
-111.115246
 30
140.853823
 70
    64
  0
VERTEX
  8
I-DISH
  5
3C47
 10
261.822634
 20
-114.271303
 30
141.815868
 70
    64
  0
VERTEX
  8
I-DISH
  5
3C48
 10
260.476322
 20
-117.219315
 30
143.384402
 70
    64
  0
VERTEX
  8
I-DISH
  5
3C49
 10
259.268653
 20
-119.863741
 30
145.508592
 70
    64
  0
VERTEX
  8
I-DISH
  5
3C4A
 10
258.238767
 20
-122.118877
 30
148.119594
 70
    64
  0
VERTEX
  8
I-DISH
  5
3C4B
 10
255.640901
 20
-127.80741
 30
154.37798
 70
    64
  0
VERTEX
  8
I-DISH
  5
3C4C
 10
252.516225
 20
-134.649496
 30
159.036089
 70
    64
  0
VERTEX
  8
I-DISH
  5
3C4D
 10
249.031165
 20
-142.280713
 30
161.845823
 70
    64
  0
VERTEX
  8
I-DISH
  5
3C4E
 10
245.371341
 20
-150.29461
 30
162.65753
 70
    64
  0
VERTEX
  8
I-DISH
  5
3C4F
 10
267.67663
 20
-101.452839
 30
139.893357
 70
    64
  0
VERTEX
  8
I-DISH
  5
3C50
 10
265.928724
 20
-103.470031
 30
139.953539
 70
    64
  0
VERTEX
  8
I-DISH
  5
3C51
 10
264.18437
 20
-105.483123
 30
140.133963
 70
    64
  0
VERTEX
  8
I-DISH
  5
3C52
 10
262.447114
 20
-107.488023
 30
140.434261
 70
    64
  0
VERTEX
  8
I-DISH
  5
3C53
 10
260.720487
 20
-109.480657
 30
140.853823
 70
    64
  0
VERTEX
  8
I-DISH
  5
3C54
 10
258.448384
 20
-112.102804
 30
141.815868
 70
    64
  0
VERTEX
  8
I-DISH
  5
3C55
 10
256.326056
 20
-114.552101
 30
143.384402
 70
    64
  0
VERTEX
  8
I-DISH
  5
3C56
 10
254.422285
 20
-116.749169
 30
145.508592
 70
    64
  0
VERTEX
  8
I-DISH
  5
3C57
 10
252.798771
 20
-118.622804
 30
148.119594
 70
    64
  0
VERTEX
  8
I-DISH
  5
3C58
 10
248.703492
 20
-123.349008
 30
154.37798
 70
    64
  0
VERTEX
  8
I-DISH
  5
3C59
 10
243.777749
 20
-129.033619
 30
159.036089
 70
    64
  0
VERTEX
  8
I-DISH
  5
3C5A
 10
238.283896
 20
-135.373863
 30
161.845823
 70
    64
  0
VERTEX
  8
I-DISH
  5
3C5B
 10
232.514545
 20
-142.032049
 30
162.65753
 70
    64
  0
VERTEX
  8
I-DISH
  5
3C5C
 10
267.67663
 20
-101.452839
 30
139.893357
 70
    64
  0
VERTEX
  8
I-DISH
  5
3C5D
 10
265.431217
 20
-102.895878
 30
139.953539
 70
    64
  0
VERTEX
  8
I-DISH
  5
3C5E
 10
263.190369
 20
-104.335985
 30
140.133963
 70
    64
  0
VERTEX
  8
I-DISH
  5
3C5F
 10
260.958638
 20
-105.770231
 30
140.434261
 70
    64
  0
VERTEX
  8
I-DISH
  5
3C60
 10
258.740562
 20
-107.195702
 30
140.853823
 70
    64
  0
VERTEX
  8
I-DISH
  5
3C61
 10
255.821751
 20
-109.071508
 30
141.815868
 70
    64
  0
VERTEX
  8
I-DISH
  5
3C62
 10
253.095345
 20
-110.823662
 30
143.384402
 70
    64
  0
VERTEX
  8
I-DISH
  5
3C63
 10
250.649705
 20
-112.39538
 30
145.508592
 70
    64
  0
VERTEX
  8
I-DISH
  5
3C64
 10
248.564091
 20
-113.735722
 30
148.119594
 70
    64
  0
VERTEX
  8
I-DISH
  5
3C65
 10
243.303174
 20
-117.116709
 30
154.37798
 70
    64
  0
VERTEX
  8
I-DISH
  5
3C66
 10
236.975418
 20
-121.18331
 30
159.036089
 70
    64
  0
VERTEX
  8
I-DISH
  5
3C67
 10
229.917851
 20
-125.718933
 30
161.845823
 70
    64
  0
VERTEX
  8
I-DISH
  5
3C68
 10
222.506372
 20
-130.482002
 30
162.65753
 70
    64
  0
VERTEX
  8
I-DISH
  5
3C69
 10
267.67663
 20
-101.452839
 30
139.893357
 70
    64
  0
VERTEX
  8
I-DISH
  5
3C6A
 10
265.115621
 20
-102.204819
 30
139.953539
 70
    64
  0
VERTEX
  8
I-DISH
  5
3C6B
 10
262.559818
 20
-102.955271
 30
140.133963
 70
    64
  0
VERTEX
  8
I-DISH
  5
3C6C
 10
260.014414
 20
-103.702669
 30
140.434261
 70
    64
  0
VERTEX
  8
I-DISH
  5
3C6D
 10
257.484584
 20
-104.445494
 30
140.853823
 70
    64
  0
VERTEX
  8
I-DISH
  5
3C6E
 10
254.15553
 20
-105.422993
 30
141.815868
 70
    64
  0
VERTEX
  8
I-DISH
  5
3C6F
 10
251.045924
 20
-106.336055
 30
143.384402
 70
    64
  0
VERTEX
  8
I-DISH
  5
3C70
 10
248.256545
 20
-107.155091
 30
145.508592
 70
    64
  0
VERTEX
  8
I-DISH
  5
3C71
 10
245.877795
 20
-107.853555
 30
148.119594
 70
    64
  0
VERTEX
  8
I-DISH
  5
3C72
 10
239.877448
 20
-109.615416
 30
154.37798
 70
    64
  0
VERTEX
  8
I-DISH
  5
3C73
 10
232.660317
 20
-111.734557
 30
159.036089
 70
    64
  0
VERTEX
  8
I-DISH
  5
3C74
 10
224.610799
 20
-114.098108
 30
161.845823
 70
    64
  0
VERTEX
  8
I-DISH
  5
3C75
 10
216.157625
 20
-116.580184
 30
162.65753
 70
    64
  0
VERTEX
  8
I-DISH
  5
3C76
 10
267.67663
 20
-101.452839
 30
139.893357
 70
    64
  0
VERTEX
  8
I-DISH
  5
3C77
 10
265.007503
 20
-101.452839
 30
139.953539
 70
    64
  0
VERTEX
  8
I-DISH
  5
3C78
 10
262.343801
 20
-101.452839
 30
140.133963
 70
    64
  0
VERTEX
  8
I-DISH
  5
3C79
 10
259.690937
 20
-101.452839
 30
140.434261
 70
    64
  0
VERTEX
  8
I-DISH
  5
3C7A
 10
257.054305
 20
-101.452839
 30
140.853823
 70
    64
  0
VERTEX
  8
I-DISH
  5
3C7B
 10
253.584708
 20
-101.452839
 30
141.815868
 70
    64
  0
VERTEX
  8
I-DISH
  5
3C7C
 10
250.343823
 20
-101.452839
 30
143.384402
 70
    64
  0
VERTEX
  8
I-DISH
  5
3C7D
 10
247.436685
 20
-101.452839
 30
145.508592
 70
    64
  0
VERTEX
  8
I-DISH
  5
3C7E
 10
244.957511
 20
-101.452839
 30
148.119594
 70
    64
  0
VERTEX
  8
I-DISH
  5
3C7F
 10
238.703846
 20
-101.452839
 30
154.37798
 70
    64
  0
VERTEX
  8
I-DISH
  5
3C80
 10
231.182029
 20
-101.452839
 30
159.036089
 70
    64
  0
VERTEX
  8
I-DISH
  5
3C81
 10
222.792683
 20
-101.452839
 30
161.845823
 70
    64
  0
VERTEX
  8
I-DISH
  5
3C82
 10
213.982641
 20
-101.452839
 30
162.65753
 70
    64
  0
VERTEX
  8
I-DISH
  5
3C83
 10
267.67663
 20
-101.452839
 30
139.893357
 70
    64
  0
VERTEX
  8
I-DISH
  5
3C84
 10
265.115621
 20
-100.700859
 30
139.953539
 70
    64
  0
VERTEX
  8
I-DISH
  5
3C85
 10
262.559818
 20
-99.950407
 30
140.133963
 70
    64
  0
VERTEX
  8
I-DISH
  5
3C86
 10
260.014414
 20
-99.20301
 30
140.434261
 70
    64
  0
VERTEX
  8
I-DISH
  5
3C87
 10
257.484584
 20
-98.460184
 30
140.853823
 70
    64
  0
VERTEX
  8
I-DISH
  5
3C88
 10
254.15553
 20
-97.482686
 30
141.815868
 70
    64
  0
VERTEX
  8
I-DISH
  5
3C89
 10
251.045924
 20
-96.569623
 30
143.384402
 70
    64
  0
VERTEX
  8
I-DISH
  5
3C8A
 10
248.256545
 20
-95.750588
 30
145.508592
 70
    64
  0
VERTEX
  8
I-DISH
  5
3C8B
 10
245.877795
 20
-95.052124
 30
148.119594
 70
    64
  0
VERTEX
  8
I-DISH
  5
3C8C
 10
239.877448
 20
-93.290263
 30
154.37798
 70
    64
  0
VERTEX
  8
I-DISH
  5
3C8D
 10
232.660317
 20
-91.171122
 30
159.036089
 70
    64
  0
VERTEX
  8
I-DISH
  5
3C8E
 10
224.610799
 20
-88.80757
 30
161.845823
 70
    64
  0
VERTEX
  8
I-DISH
  5
3C8F
 10
216.157625
 20
-86.325494
 30
162.65753
 70
    64
  0
VERTEX
  8
I-DISH
  5
3C90
 10
267.67663
 20
-101.452839
 30
139.893357
 70
    64
  0
VERTEX
  8
I-DISH
  5
3C91
 10
265.431217
 20
-100.0098
 30
139.953539
 70
    64
  0
VERTEX
  8
I-DISH
  5
3C92
 10
263.190369
 20
-98.569694
 30
140.133963
 70
    64
  0
VERTEX
  8
I-DISH
  5
3C93
 10
260.958638
 20
-97.135448
 30
140.434261
 70
    64
  0
VERTEX
  8
I-DISH
  5
3C94
 10
258.740562
 20
-95.709977
 30
140.853823
 70
    64
  0
VERTEX
  8
I-DISH
  5
3C95
 10
255.821751
 20
-93.834171
 30
141.815868
 70
    64
  0
VERTEX
  8
I-DISH
  5
3C96
 10
253.095345
 20
-92.082016
 30
143.384402
 70
    64
  0
VERTEX
  8
I-DISH
  5
3C97
 10
250.649705
 20
-90.510299
 30
145.508592
 70
    64
  0
VERTEX
  8
I-DISH
  5
3C98
 10
248.564091
 20
-89.169956
 30
148.119594
 70
    64
  0
VERTEX
  8
I-DISH
  5
3C99
 10
243.303174
 20
-85.78897
 30
154.37798
 70
    64
  0
VERTEX
  8
I-DISH
  5
3C9A
 10
236.975418
 20
-81.722368
 30
159.036089
 70
    64
  0
VERTEX
  8
I-DISH
  5
3C9B
 10
229.917851
 20
-77.186746
 30
161.845823
 70
    64
  0
VERTEX
  8
I-DISH
  5
3C9C
 10
222.506372
 20
-72.423677
 30
162.65753
 70
    64
  0
VERTEX
  8
I-DISH
  5
3C9D
 10
267.67663
 20
-101.452839
 30
139.893357
 70
    64
  0
VERTEX
  8
I-DISH
  5
3C9E
 10
265.928724
 20
-99.435647
 30
139.953539
 70
    64
  0
VERTEX
  8
I-DISH
  5
3C9F
 10
264.18437
 20
-97.422556
 30
140.133963
 70
    64
  0
VERTEX
  8
I-DISH
  5
3CA0
 10
262.447114
 20
-95.417655
 30
140.434261
 70
    64
  0
VERTEX
  8
I-DISH
  5
3CA1
 10
260.720487
 20
-93.425021
 30
140.853823
 70
    64
  0
VERTEX
  8
I-DISH
  5
3CA2
 10
258.448384
 20
-90.802875
 30
141.815868
 70
    64
  0
VERTEX
  8
I-DISH
  5
3CA3
 10
256.326056
 20
-88.353578
 30
143.384402
 70
    64
  0
VERTEX
  8
I-DISH
  5
3CA4
 10
254.422285
 20
-86.156509
 30
145.508592
 70
    64
  0
VERTEX
  8
I-DISH
  5
3CA5
 10
252.798771
 20
-84.282875
 30
148.119594
 70
    64
  0
VERTEX
  8
I-DISH
  5
3CA6
 10
248.703492
 20
-79.55667
 30
154.37798
 70
    64
  0
VERTEX
  8
I-DISH
  5
3CA7
 10
243.777749
 20
-73.87206
 30
159.036089
 70
    64
  0
VERTEX
  8
I-DISH
  5
3CA8
 10
238.283896
 20
-67.531816
 30
161.845823
 70
    64
  0
VERTEX
  8
I-DISH
  5
3CA9
 10
232.514545
 20
-60.87363
 30
162.65753
 70
    64
  0
VERTEX
  8
I-DISH
  5
3CAA
 10
267.67663
 20
-101.452839
 30
139.893357
 70
    64
  0
VERTEX
  8
I-DISH
  5
3CAB
 10
266.567835
 20
-99.024916
 30
139.953539
 70
    64
  0
VERTEX
  8
I-DISH
  5
3CAC
 10
265.461293
 20
-96.601927
 30
140.133963
 70
    64
  0
VERTEX
  8
I-DISH
  5
3CAD
 10
264.359254
 20
-94.188797
 30
140.434261
 70
    64
  0
VERTEX
  8
I-DISH
  5
3CAE
 10
263.263957
 20
-91.790432
 30
140.853823
 70
    64
  0
VERTEX
  8
I-DISH
  5
3CAF
 10
261.822634
 20
-88.634376
 30
141.815868
 70
    64
  0
VERTEX
  8
I-DISH
  5
3CB0
 10
260.476322
 20
-85.686363
 30
143.384402
 70
    64
  0
VERTEX
  8
I-DISH
  5
3CB1
 10
259.268653
 20
-83.041938
 30
145.508592
 70
    64
  0
VERTEX
  8
I-DISH
  5
3CB2
 10
258.238767
 20
-80.786802
 30
148.119594
 70
    64
  0
VERTEX
  8
I-DISH
  5
3CB3
 10
255.640901
 20
-75.098268
 30
154.37798
 70
    64
  0
VERTEX
  8
I-DISH
  5
3CB4
 10
252.516225
 20
-68.256182
 30
159.036089
 70
    64
  0
VERTEX
  8
I-DISH
  5
3CB5
 10
249.031165
 20
-60.624965
 30
161.845823
 70
    64
  0
VERTEX
  8
I-DISH
  5
3CB6
 10
245.371341
 20
-52.611068
 30
162.65753
 70
    64
  0
VERTEX
  8
I-DISH
  5
3CB7
 10
267.67663
 20
-101.452839
 30
139.893357
 70
    64
  0
VERTEX
  8
I-DISH
  5
3CB8
 10
267.296774
 20
-98.81088
 30
139.953539
 70
    64
  0
VERTEX
  8
I-DISH
  5
3CB9
 10
266.917689
 20
-96.17429
 30
140.133963
 70
    64
  0
VERTEX
  8
I-DISH
  5
3CBA
 10
266.540148
 20
-93.548429
 30
140.434261
 70
    64
  0
VERTEX
  8
I-DISH
  5
3CBB
 10
266.164916
 20
-90.938634
 30
140.853823
 70
    64
  0
VERTEX
  8
I-DISH
  5
3CBC
 10
265.671141
 20
-87.504352
 30
141.815868
 70
    64
  0
VERTEX
  8
I-DISH
  5
3CBD
 10
265.209915
 20
-84.296455
 30
143.384402
 70
    64
  0
VERTEX
  8
I-DISH
  5
3CBE
 10
264.796186
 20
-81.418908
 30
145.508592
 70
    64
  0
VERTEX
  8
I-DISH
  5
3CBF
 10
264.443363
 20
-78.964968
 30
148.119594
 70
    64
  0
VERTEX
  8
I-DISH
  5
3CC0
 10
263.553373
 20
-72.774957
 30
154.37798
 70
    64
  0
VERTEX
  8
I-DISH
  5
3CC1
 10
262.482907
 20
-65.3297
 30
159.036089
 70
    64
  0
VERTEX
  8
I-DISH
  5
3CC2
 10
261.288979
 20
-57.025746
 30
161.845823
 70
    64
  0
VERTEX
  8
I-DISH
  5
3CC3
 10
260.035179
 20
-48.305377
 30
162.65753
 70
    64
  0
VERTEX
  8
I-DISH
  5
3CC4
 10
267.67663
 20
-101.452839
 30
139.893357
 70
    64
  0
VERTEX
  8
I-DISH
  5
3CC5
 10
268.056487
 20
-98.81088
 30
139.953539
 70
    64
  0
VERTEX
  8
I-DISH
  5
3CC6
 10
268.435571
 20
-96.17429
 30
140.133963
 70
    64
  0
VERTEX
  8
I-DISH
  5
3CC7
 10
268.813113
 20
-93.548429
 30
140.434261
 70
    64
  0
VERTEX
  8
I-DISH
  5
3CC8
 10
269.188345
 20
-90.938634
 30
140.853823
 70
    64
  0
VERTEX
  8
I-DISH
  5
3CC9
 10
269.68212
 20
-87.504352
 30
141.815868
 70
    64
  0
VERTEX
  8
I-DISH
  5
3CCA
 10
270.143346
 20
-84.296455
 30
143.384402
 70
    64
  0
VERTEX
  8
I-DISH
  5
3CCB
 10
270.557075
 20
-81.418908
 30
145.508592
 70
    64
  0
VERTEX
  8
I-DISH
  5
3CCC
 10
270.909898
 20
-78.964968
 30
148.119594
 70
    64
  0
VERTEX
  8
I-DISH
  5
3CCD
 10
271.799887
 20
-72.774957
 30
154.37798
 70
    64
  0
VERTEX
  8
I-DISH
  5
3CCE
 10
272.870354
 20
-65.3297
 30
159.036089
 70
    64
  0
VERTEX
  8
I-DISH
  5
3CCF
 10
274.064282
 20
-57.025746
 30
161.845823
 70
    64
  0
VERTEX
  8
I-DISH
  5
3CD0
 10
275.318082
 20
-48.305377
 30
162.65753
 70
    64
  0
VERTEX
  8
I-DISH
  5
3CD1
 10
267.67663
 20
-101.452839
 30
139.893357
 70
    64
  0
VERTEX
  8
I-DISH
  5
3CD2
 10
268.785426
 20
-99.024916
 30
139.953539
 70
    64
  0
VERTEX
  8
I-DISH
  5
3CD3
 10
269.891968
 20
-96.601927
 30
140.133963
 70
    64
  0
VERTEX
  8
I-DISH
  5
3CD4
 10
270.994007
 20
-94.188797
 30
140.434261
 70
    64
  0
VERTEX
  8
I-DISH
  5
3CD5
 10
272.089304
 20
-91.790432
 30
140.853823
 70
    64
  0
VERTEX
  8
I-DISH
  5
3CD6
 10
273.530626
 20
-88.634376
 30
141.815868
 70
    64
  0
VERTEX
  8
I-DISH
  5
3CD7
 10
274.876939
 20
-85.686363
 30
143.384402
 70
    64
  0
VERTEX
  8
I-DISH
  5
3CD8
 10
276.084607
 20
-83.041938
 30
145.508592
 70
    64
  0
VERTEX
  8
I-DISH
  5
3CD9
 10
277.114493
 20
-80.786802
 30
148.119594
 70
    64
  0
VERTEX
  8
I-DISH
  5
3CDA
 10
279.71236
 20
-75.098268
 30
154.37798
 70
    64
  0
VERTEX
  8
I-DISH
  5
3CDB
 10
282.837036
 20
-68.256182
 30
159.036089
 70
    64
  0
VERTEX
  8
I-DISH
  5
3CDC
 10
286.322096
 20
-60.624965
 30
161.845823
 70
    64
  0
VERTEX
  8
I-DISH
  5
3CDD
 10
289.98192
 20
-52.611068
 30
162.65753
 70
    64
  0
VERTEX
  8
I-DISH
  5
3CDE
 10
267.67663
 20
-101.452839
 30
139.893357
 70
    64
  0
VERTEX
  8
I-DISH
  5
3CDF
 10
269.424537
 20
-99.435647
 30
139.953539
 70
    64
  0
VERTEX
  8
I-DISH
  5
3CE0
 10
271.168891
 20
-97.422556
 30
140.133963
 70
    64
  0
VERTEX
  8
I-DISH
  5
3CE1
 10
272.906147
 20
-95.417655
 30
140.434261
 70
    64
  0
VERTEX
  8
I-DISH
  5
3CE2
 10
274.632774
 20
-93.425021
 30
140.853823
 70
    64
  0
VERTEX
  8
I-DISH
  5
3CE3
 10
276.904877
 20
-90.802875
 30
141.815868
 70
    64
  0
VERTEX
  8
I-DISH
  5
3CE4
 10
279.027205
 20
-88.353578
 30
143.384402
 70
    64
  0
VERTEX
  8
I-DISH
  5
3CE5
 10
280.930976
 20
-86.156509
 30
145.508592
 70
    64
  0
VERTEX
  8
I-DISH
  5
3CE6
 10
282.554489
 20
-84.282875
 30
148.119594
 70
    64
  0
VERTEX
  8
I-DISH
  5
3CE7
 10
286.649769
 20
-79.55667
 30
154.37798
 70
    64
  0
VERTEX
  8
I-DISH
  5
3CE8
 10
291.575512
 20
-73.87206
 30
159.036089
 70
    64
  0
VERTEX
  8
I-DISH
  5
3CE9
 10
297.069365
 20
-67.531816
 30
161.845823
 70
    64
  0
VERTEX
  8
I-DISH
  5
3CEA
 10
302.838716
 20
-60.87363
 30
162.65753
 70
    64
  0
VERTEX
  8
I-DISH
  5
3CEB
 10
267.67663
 20
-101.452839
 30
139.893357
 70
    64
  0
VERTEX
  8
I-DISH
  5
3CEC
 10
269.922043
 20
-100.0098
 30
139.953539
 70
    64
  0
VERTEX
  8
I-DISH
  5
3CED
 10
272.162892
 20
-98.569694
 30
140.133963
 70
    64
  0
VERTEX
  8
I-DISH
  5
3CEE
 10
274.394623
 20
-97.135448
 30
140.434261
 70
    64
  0
VERTEX
  8
I-DISH
  5
3CEF
 10
276.612699
 20
-95.709977
 30
140.853823
 70
    64
  0
VERTEX
  8
I-DISH
  5
3CF0
 10
279.53151
 20
-93.834171
 30
141.815868
 70
    64
  0
VERTEX
  8
I-DISH
  5
3CF1
 10
282.257915
 20
-92.082016
 30
143.384402
 70
    64
  0
VERTEX
  8
I-DISH
  5
3CF2
 10
284.703556
 20
-90.510299
 30
145.508592
 70
    64
  0
VERTEX
  8
I-DISH
  5
3CF3
 10
286.789169
 20
-89.169956
 30
148.119594
 70
    64
  0
VERTEX
  8
I-DISH
  5
3CF4
 10
292.050087
 20
-85.78897
 30
154.37798
 70
    64
  0
VERTEX
  8
I-DISH
  5
3CF5
 10
298.377843
 20
-81.722368
 30
159.036089
 70
    64
  0
VERTEX
  8
I-DISH
  5
3CF6
 10
305.435409
 20
-77.186746
 30
161.845823
 70
    64
  0
VERTEX
  8
I-DISH
  5
3CF7
 10
312.846889
 20
-72.423677
 30
162.65753
 70
    64
  0
VERTEX
  8
I-DISH
  5
3CF8
 10
267.67663
 20
-101.452839
 30
139.893357
 70
    64
  0
VERTEX
  8
I-DISH
  5
3CF9
 10
270.237639
 20
-100.700859
 30
139.953539
 70
    64
  0
VERTEX
  8
I-DISH
  5
3CFA
 10
272.793443
 20
-99.950407
 30
140.133963
 70
    64
  0
VERTEX
  8
I-DISH
  5
3CFB
 10
275.338846
 20
-99.20301
 30
140.434261
 70
    64
  0
VERTEX
  8
I-DISH
  5
3CFC
 10
277.868677
 20
-98.460184
 30
140.853823
 70
    64
  0
VERTEX
  8
I-DISH
  5
3CFD
 10
281.197731
 20
-97.482686
 30
141.815868
 70
    64
  0
VERTEX
  8
I-DISH
  5
3CFE
 10
284.307337
 20
-96.569623
 30
143.384402
 70
    64
  0
VERTEX
  8
I-DISH
  5
3CFF
 10
287.096715
 20
-95.750588
 30
145.508592
 70
    64
  0
VERTEX
  8
I-DISH
  5
3D00
 10
289.475465
 20
-95.052124
 30
148.119594
 70
    64
  0
VERTEX
  8
I-DISH
  5
3D01
 10
295.475813
 20
-93.290263
 30
154.37798
 70
    64
  0
VERTEX
  8
I-DISH
  5
3D02
 10
302.692944
 20
-91.171122
 30
159.036089
 70
    64
  0
VERTEX
  8
I-DISH
  5
3D03
 10
310.742462
 20
-88.80757
 30
161.845823
 70
    64
  0
VERTEX
  8
I-DISH
  5
3D04
 10
319.195636
 20
-86.325494
 30
162.65753
 70
    64
  0
SEQEND
  8
I-DISH
  5
3D05
  0
POLYLINE
  8
I-DISH
  5
3D06
 66
     1
 10
0.0
 20
0.0
 30
0.0
 70
    17
 71
    22
 72
     9
  0
VERTEX
  8
I-DISH
  5
3D07
 10
267.67663
 20
-101.452839
 30
126.683453
 70
    64
  0
VERTEX
  8
I-DISH
  5
3D08
 10
274.642907
 20
-101.452839
 30
127.733486
 70
    64
  0
VERTEX
  8
I-DISH
  5
3D09
 10
280.990157
 20
-101.452839
 30
130.79028
 70
    64
  0
VERTEX
  8
I-DISH
  5
3D0A
 10
286.154363
 20
-101.452839
 30
135.582206
 70
    64
  0
VERTEX
  8
I-DISH
  5
3D0B
 10
289.67663
 20
-101.452839
 30
141.683453
 70
    64
  0
VERTEX
  8
I-DISH
  5
3D0C
 10
295.428021
 20
-101.452839
 30
149.273667
 70
    64
  0
VERTEX
  8
I-DISH
  5
3D0D
 10
302.99747
 20
-101.452839
 30
155.05236
 70
    64
  0
VERTEX
  8
I-DISH
  5
3D0E
 10
311.835196
 20
-101.452839
 30
158.599816
 70
    64
  0
VERTEX
  8
I-DISH
  5
3D0F
 10
321.299301
 20
-101.452839
 30
159.658378
 70
    64
  0
VERTEX
  8
I-DISH
  5
3D10
 10
267.67663
 20
-101.452839
 30
126.683453
 70
    64
  0
VERTEX
  8
I-DISH
  5
3D11
 10
274.360724
 20
-103.415466
 30
127.733486
 70
    64
  0
VERTEX
  8
I-DISH
  5
3D12
 10
280.450866
 20
-105.203693
 30
130.79028
 70
    64
  0
VERTEX
  8
I-DISH
  5
3D13
 10
285.405885
 20
-106.658618
 30
135.582206
 70
    64
  0
VERTEX
  8
I-DISH
  5
3D14
 10
288.785476
 20
-107.650955
 30
141.683453
 70
    64
  0
VERTEX
  8
I-DISH
  5
3D15
 10
294.303895
 20
-109.271309
 30
149.273667
 70
    64
  0
VERTEX
  8
I-DISH
  5
3D16
 10
301.566727
 20
-111.40387
 30
155.05236
 70
    64
  0
VERTEX
  8
I-DISH
  5
3D17
 10
310.046463
 20
-113.893745
 30
158.599816
 70
    64
  0
VERTEX
  8
I-DISH
  5
3D18
 10
319.127206
 20
-116.560091
 30
159.658378
 70
    64
  0
VERTEX
  8
I-DISH
  5
3D19
 10
267.67663
 20
-101.452839
 30
126.683453
 70
    64
  0
VERTEX
  8
I-DISH
  5
3D1A
 10
273.537035
 20
-105.219093
 30
127.733486
 70
    64
  0
VERTEX
  8
I-DISH
  5
3D1B
 10
278.876682
 20
-108.650675
 30
130.79028
 70
    64
  0
VERTEX
  8
I-DISH
  5
3D1C
 10
283.221088
 20
-111.442656
 30
135.582206
 70
    64
  0
VERTEX
  8
I-DISH
  5
3D1D
 10
286.184208
 20
-113.346937
 30
141.683453
 70
    64
  0
VERTEX
  8
I-DISH
  5
3D1E
 10
291.022586
 20
-116.456374
 30
149.273667
 70
    64
  0
VERTEX
  8
I-DISH
  5
3D1F
 10
297.390411
 20
-120.548727
 30
155.05236
 70
    64
  0
VERTEX
  8
I-DISH
  5
3D20
 10
304.825179
 20
-125.326762
 30
158.599816
 70
    64
  0
VERTEX
  8
I-DISH
  5
3D21
 10
312.786891
 20
-130.443444
 30
159.658378
 70
    64
  0
VERTEX
  8
I-DISH
  5
3D22
 10
267.67663
 20
-101.452839
 30
126.683453
 70
    64
  0
VERTEX
  8
I-DISH
  5
3D23
 10
272.238571
 20
-106.7176
 30
127.733486
 70
    64
  0
VERTEX
  8
I-DISH
  5
3D24
 10
276.395136
 20
-111.514532
 30
130.79028
 70
    64
  0
VERTEX
  8
I-DISH
  5
3D25
 10
279.776972
 20
-115.417378
 30
135.582206
 70
    64
  0
VERTEX
  8
I-DISH
  5
3D26
 10
282.083566
 20
-118.07933
 30
141.683453
 70
    64
  0
VERTEX
  8
I-DISH
  5
3D27
 10
285.849926
 20
-122.425941
 30
149.273667
 70
    64
  0
VERTEX
  8
I-DISH
  5
3D28
 10
290.806861
 20
-128.146548
 30
155.05236
 70
    64
  0
VERTEX
  8
I-DISH
  5
3D29
 10
296.594341
 20
-134.825656
 30
158.599816
 70
    64
  0
VERTEX
  8
I-DISH
  5
3D2A
 10
302.792012
 20
-141.97815
 30
159.658378
 70
    64
  0
VERTEX
  8
I-DISH
  5
3D2B
 10
267.67663
 20
-101.452839
 30
126.683453
 70
    64
  0
VERTEX
  8
I-DISH
  5
3D2C
 10
270.570526
 20
-107.789587
 30
127.733486
 70
    64
  0
VERTEX
  8
I-DISH
  5
3D2D
 10
273.207269
 20
-113.563249
 30
130.79028
 70
    64
  0
VERTEX
  8
I-DISH
  5
3D2E
 10
275.352558
 20
-118.260776
 30
135.582206
 70
    64
  0
VERTEX
  8
I-DISH
  5
3D2F
 10
276.815761
 20
-121.464743
 30
141.683453
 70
    64
  0
VERTEX
  8
I-DISH
  5
3D30
 10
279.204975
 20
-126.696392
 30
149.273667
 70
    64
  0
VERTEX
  8
I-DISH
  5
3D31
 10
282.349437
 20
-133.581805
 30
155.05236
 70
    64
  0
VERTEX
  8
I-DISH
  5
3D32
 10
286.020761
 20
-141.620883
 30
158.599816
 70
    64
  0
VERTEX
  8
I-DISH
  5
3D33
 10
289.952293
 20
-150.229736
 30
159.658378
 70
    64
  0
VERTEX
  8
I-DISH
  5
3D34
 10
267.67663
 20
-101.452839
 30
126.683453
 70
    64
  0
VERTEX
  8
I-DISH
  5
3D35
 10
268.668035
 20
-108.348209
 30
127.733486
 70
    64
  0
VERTEX
  8
I-DISH
  5
3D36
 10
269.571343
 20
-114.630854
 30
130.79028
 70
    64
  0
VERTEX
  8
I-DISH
  5
3D37
 10
270.306286
 20
-119.742495
 30
135.582206
 70
    64
  0
VERTEX
  8
I-DISH
  5
3D38
 10
270.807557
 20
-123.228911
 30
141.683453
 70
    64
  0
VERTEX
  8
I-DISH
  5
3D39
 10
271.626065
 20
-128.921761
 30
149.273667
 70
    64
  0
VERTEX
  8
I-DISH
  5
3D3A
 10
272.70331
 20
-136.414163
 30
155.05236
 70
    64
  0
VERTEX
  8
I-DISH
  5
3D3B
 10
273.961049
 20
-145.161934
 30
158.599816
 70
    64
  0
VERTEX
  8
I-DISH
  5
3D3C
 10
275.307932
 20
-154.529709
 30
159.658378
 70
    64
  0
VERTEX
  8
I-DISH
  5
3D3D
 10
267.67663
 20
-101.452839
 30
126.683453
 70
    64
  0
VERTEX
  8
I-DISH
  5
3D3E
 10
266.685226
 20
-108.348209
 30
127.733486
 70
    64
  0
VERTEX
  8
I-DISH
  5
3D3F
 10
265.781918
 20
-114.630854
 30
130.79028
 70
    64
  0
VERTEX
  8
I-DISH
  5
3D40
 10
265.046975
 20
-119.742495
 30
135.582206
 70
    64
  0
VERTEX
  8
I-DISH
  5
3D41
 10
264.545704
 20
-123.228911
 30
141.683453
 70
    64
  0
VERTEX
  8
I-DISH
  5
3D42
 10
263.727196
 20
-128.921761
 30
149.273667
 70
    64
  0
VERTEX
  8
I-DISH
  5
3D43
 10
262.649951
 20
-136.414163
 30
155.05236
 70
    64
  0
VERTEX
  8
I-DISH
  5
3D44
 10
261.392211
 20
-145.161934
 30
158.599816
 70
    64
  0
VERTEX
  8
I-DISH
  5
3D45
 10
260.045329
 20
-154.529709
 30
159.658378
 70
    64
  0
VERTEX
  8
I-DISH
  5
3D46
 10
267.67663
 20
-101.452839
 30
126.683453
 70
    64
  0
VERTEX
  8
I-DISH
  5
3D47
 10
264.782734
 20
-107.789587
 30
127.733486
 70
    64
  0
VERTEX
  8
I-DISH
  5
3D48
 10
262.145991
 20
-113.563249
 30
130.79028
 70
    64
  0
VERTEX
  8
I-DISH
  5
3D49
 10
260.000703
 20
-118.260776
 30
135.582206
 70
    64
  0
VERTEX
  8
I-DISH
  5
3D4A
 10
258.5375
 20
-121.464743
 30
141.683453
 70
    64
  0
VERTEX
  8
I-DISH
  5
3D4B
 10
256.148286
 20
-126.696392
 30
149.273667
 70
    64
  0
VERTEX
  8
I-DISH
  5
3D4C
 10
253.003823
 20
-133.581805
 30
155.05236
 70
    64
  0
VERTEX
  8
I-DISH
  5
3D4D
 10
249.332499
 20
-141.620883
 30
158.599816
 70
    64
  0
VERTEX
  8
I-DISH
  5
3D4E
 10
245.400968
 20
-150.229736
 30
159.658378
 70
    64
  0
VERTEX
  8
I-DISH
  5
3D4F
 10
267.67663
 20
-101.452839
 30
126.683453
 70
    64
  0
VERTEX
  8
I-DISH
  5
3D50
 10
263.114689
 20
-106.7176
 30
127.733486
 70
    64
  0
VERTEX
  8
I-DISH
  5
3D51
 10
258.958124
 20
-111.514532
 30
130.79028
 70
    64
  0
VERTEX
  8
I-DISH
  5
3D52
 10
255.576289
 20
-115.417378
 30
135.582206
 70
    64
  0
VERTEX
  8
I-DISH
  5
3D53
 10
253.269694
 20
-118.07933
 30
141.683453
 70
    64
  0
VERTEX
  8
I-DISH
  5
3D54
 10
249.503334
 20
-122.425941
 30
149.273667
 70
    64
  0
VERTEX
  8
I-DISH
  5
3D55
 10
244.5464
 20
-128.146548
 30
155.05236
 70
    64
  0
VERTEX
  8
I-DISH
  5
3D56
 10
238.75892
 20
-134.825656
 30
158.599816
 70
    64
  0
VERTEX
  8
I-DISH
  5
3D57
 10
232.561249
 20
-141.97815
 30
159.658378
 70
    64
  0
VERTEX
  8
I-DISH
  5
3D58
 10
267.67663
 20
-101.452839
 30
126.683453
 70
    64
  0
VERTEX
  8
I-DISH
  5
3D59
 10
261.816226
 20
-105.219093
 30
127.733486
 70
    64
  0
VERTEX
  8
I-DISH
  5
3D5A
 10
256.476579
 20
-108.650675
 30
130.79028
 70
    64
  0
VERTEX
  8
I-DISH
  5
3D5B
 10
252.132172
 20
-111.442656
 30
135.582206
 70
    64
  0
VERTEX
  8
I-DISH
  5
3D5C
 10
249.169053
 20
-113.346937
 30
141.683453
 70
    64
  0
VERTEX
  8
I-DISH
  5
3D5D
 10
244.330675
 20
-116.456374
 30
149.273667
 70
    64
  0
VERTEX
  8
I-DISH
  5
3D5E
 10
237.962849
 20
-120.548727
 30
155.05236
 70
    64
  0
VERTEX
  8
I-DISH
  5
3D5F
 10
230.528081
 20
-125.326762
 30
158.599816
 70
    64
  0
VERTEX
  8
I-DISH
  5
3D60
 10
222.566369
 20
-130.443444
 30
159.658378
 70
    64
  0
VERTEX
  8
I-DISH
  5
3D61
 10
267.67663
 20
-101.452839
 30
126.683453
 70
    64
  0
VERTEX
  8
I-DISH
  5
3D62
 10
260.992537
 20
-103.415466
 30
127.733486
 70
    64
  0
VERTEX
  8
I-DISH
  5
3D63
 10
254.902395
 20
-105.203693
 30
130.79028
 70
    64
  0
VERTEX
  8
I-DISH
  5
3D64
 10
249.947376
 20
-106.658618
 30
135.582206
 70
    64
  0
VERTEX
  8
I-DISH
  5
3D65
 10
246.567785
 20
-107.650955
 30
141.683453
 70
    64
  0
VERTEX
  8
I-DISH
  5
3D66
 10
241.049366
 20
-109.271309
 30
149.273667
 70
    64
  0
VERTEX
  8
I-DISH
  5
3D67
 10
233.786533
 20
-111.40387
 30
155.05236
 70
    64
  0
VERTEX
  8
I-DISH
  5
3D68
 10
225.306797
 20
-113.893745
 30
158.599816
 70
    64
  0
VERTEX
  8
I-DISH
  5
3D69
 10
216.226054
 20
-116.560091
 30
159.658378
 70
    64
  0
VERTEX
  8
I-DISH
  5
3D6A
 10
267.67663
 20
-101.452839
 30
126.683453
 70
    64
  0
VERTEX
  8
I-DISH
  5
3D6B
 10
260.710354
 20
-101.452839
 30
127.733486
 70
    64
  0
VERTEX
  8
I-DISH
  5
3D6C
 10
254.363103
 20
-101.452839
 30
130.79028
 70
    64
  0
VERTEX
  8
I-DISH
  5
3D6D
 10
249.198898
 20
-101.452839
 30
135.582206
 70
    64
  0
VERTEX
  8
I-DISH
  5
3D6E
 10
245.67663
 20
-101.452839
 30
141.683453
 70
    64
  0
VERTEX
  8
I-DISH
  5
3D6F
 10
239.92524
 20
-101.452839
 30
149.273667
 70
    64
  0
VERTEX
  8
I-DISH
  5
3D70
 10
232.355791
 20
-101.452839
 30
155.05236
 70
    64
  0
VERTEX
  8
I-DISH
  5
3D71
 10
223.518065
 20
-101.452839
 30
158.599816
 70
    64
  0
VERTEX
  8
I-DISH
  5
3D72
 10
214.05396
 20
-101.452839
 30
159.658378
 70
    64
  0
VERTEX
  8
I-DISH
  5
3D73
 10
267.67663
 20
-101.452839
 30
126.683453
 70
    64
  0
VERTEX
  8
I-DISH
  5
3D74
 10
260.992537
 20
-99.490212
 30
127.733486
 70
    64
  0
VERTEX
  8
I-DISH
  5
3D75
 10
254.902395
 20
-97.701985
 30
130.79028
 70
    64
  0
VERTEX
  8
I-DISH
  5
3D76
 10
249.947376
 20
-96.24706
 30
135.582206
 70
    64
  0
VERTEX
  8
I-DISH
  5
3D77
 10
246.567785
 20
-95.254723
 30
141.683453
 70
    64
  0
VERTEX
  8
I-DISH
  5
3D78
 10
241.049366
 20
-93.634369
 30
149.273667
 70
    64
  0
VERTEX
  8
I-DISH
  5
3D79
 10
233.786533
 20
-91.501809
 30
155.05236
 70
    64
  0
VERTEX
  8
I-DISH
  5
3D7A
 10
225.306797
 20
-89.011934
 30
158.599816
 70
    64
  0
VERTEX
  8
I-DISH
  5
3D7B
 10
216.226054
 20
-86.345587
 30
159.658378
 70
    64
  0
VERTEX
  8
I-DISH
  5
3D7C
 10
267.67663
 20
-101.452839
 30
126.683453
 70
    64
  0
VERTEX
  8
I-DISH
  5
3D7D
 10
261.816226
 20
-97.686586
 30
127.733486
 70
    64
  0
VERTEX
  8
I-DISH
  5
3D7E
 10
256.476579
 20
-94.255003
 30
130.79028
 70
    64
  0
VERTEX
  8
I-DISH
  5
3D7F
 10
252.132172
 20
-91.463023
 30
135.582206
 70
    64
  0
VERTEX
  8
I-DISH
  5
3D80
 10
249.169053
 20
-89.558741
 30
141.683453
 70
    64
  0
VERTEX
  8
I-DISH
  5
3D81
 10
244.330675
 20
-86.449305
 30
149.273667
 70
    64
  0
VERTEX
  8
I-DISH
  5
3D82
 10
237.962849
 20
-82.356952
 30
155.05236
 70
    64
  0
VERTEX
  8
I-DISH
  5
3D83
 10
230.528081
 20
-77.578916
 30
158.599816
 70
    64
  0
VERTEX
  8
I-DISH
  5
3D84
 10
222.566369
 20
-72.462235
 30
159.658378
 70
    64
  0
VERTEX
  8
I-DISH
  5
3D85
 10
267.67663
 20
-101.452839
 30
126.683453
 70
    64
  0
VERTEX
  8
I-DISH
  5
3D86
 10
263.114689
 20
-96.188079
 30
127.733486
 70
    64
  0
VERTEX
  8
I-DISH
  5
3D87
 10
258.958124
 20
-91.391147
 30
130.79028
 70
    64
  0
VERTEX
  8
I-DISH
  5
3D88
 10
255.576289
 20
-87.488301
 30
135.582206
 70
    64
  0
VERTEX
  8
I-DISH
  5
3D89
 10
253.269694
 20
-84.826349
 30
141.683453
 70
    64
  0
VERTEX
  8
I-DISH
  5
3D8A
 10
249.503334
 20
-80.479738
 30
149.273667
 70
    64
  0
VERTEX
  8
I-DISH
  5
3D8B
 10
244.5464
 20
-74.75913
 30
155.05236
 70
    64
  0
VERTEX
  8
I-DISH
  5
3D8C
 10
238.75892
 20
-68.080022
 30
158.599816
 70
    64
  0
VERTEX
  8
I-DISH
  5
3D8D
 10
232.561249
 20
-60.927529
 30
159.658378
 70
    64
  0
VERTEX
  8
I-DISH
  5
3D8E
 10
267.67663
 20
-101.452839
 30
126.683453
 70
    64
  0
VERTEX
  8
I-DISH
  5
3D8F
 10
264.782734
 20
-95.116091
 30
127.733486
 70
    64
  0
VERTEX
  8
I-DISH
  5
3D90
 10
262.145991
 20
-89.342429
 30
130.79028
 70
    64
  0
VERTEX
  8
I-DISH
  5
3D91
 10
260.000703
 20
-84.644902
 30
135.582206
 70
    64
  0
VERTEX
  8
I-DISH
  5
3D92
 10
258.5375
 20
-81.440935
 30
141.683453
 70
    64
  0
VERTEX
  8
I-DISH
  5
3D93
 10
256.148286
 20
-76.209286
 30
149.273667
 70
    64
  0
VERTEX
  8
I-DISH
  5
3D94
 10
253.003823
 20
-69.323874
 30
155.05236
 70
    64
  0
VERTEX
  8
I-DISH
  5
3D95
 10
249.332499
 20
-61.284795
 30
158.599816
 70
    64
  0
VERTEX
  8
I-DISH
  5
3D96
 10
245.400968
 20
-52.675942
 30
159.658378
 70
    64
  0
VERTEX
  8
I-DISH
  5
3D97
 10
267.67663
 20
-101.452839
 30
126.683453
 70
    64
  0
VERTEX
  8
I-DISH
  5
3D98
 10
266.685226
 20
-94.557469
 30
127.733486
 70
    64
  0
VERTEX
  8
I-DISH
  5
3D99
 10
265.781918
 20
-88.274825
 30
130.79028
 70
    64
  0
VERTEX
  8
I-DISH
  5
3D9A
 10
265.046975
 20
-83.163183
 30
135.582206
 70
    64
  0
VERTEX
  8
I-DISH
  5
3D9B
 10
264.545704
 20
-79.676767
 30
141.683453
 70
    64
  0
VERTEX
  8
I-DISH
  5
3D9C
 10
263.727196
 20
-73.983918
 30
149.273667
 70
    64
  0
VERTEX
  8
I-DISH
  5
3D9D
 10
262.649951
 20
-66.491515
 30
155.05236
 70
    64
  0
VERTEX
  8
I-DISH
  5
3D9E
 10
261.392211
 20
-57.743744
 30
158.599816
 70
    64
  0
VERTEX
  8
I-DISH
  5
3D9F
 10
260.045329
 20
-48.37597
 30
159.658378
 70
    64
  0
VERTEX
  8
I-DISH
  5
3DA0
 10
267.67663
 20
-101.452839
 30
126.683453
 70
    64
  0
VERTEX
  8
I-DISH
  5
3DA1
 10
268.668035
 20
-94.557469
 30
127.733486
 70
    64
  0
VERTEX
  8
I-DISH
  5
3DA2
 10
269.571343
 20
-88.274825
 30
130.79028
 70
    64
  0
VERTEX
  8
I-DISH
  5
3DA3
 10
270.306286
 20
-83.163183
 30
135.582206
 70
    64
  0
VERTEX
  8
I-DISH
  5
3DA4
 10
270.807557
 20
-79.676767
 30
141.683453
 70
    64
  0
VERTEX
  8
I-DISH
  5
3DA5
 10
271.626065
 20
-73.983918
 30
149.273667
 70
    64
  0
VERTEX
  8
I-DISH
  5
3DA6
 10
272.70331
 20
-66.491515
 30
155.05236
 70
    64
  0
VERTEX
  8
I-DISH
  5
3DA7
 10
273.961049
 20
-57.743744
 30
158.599816
 70
    64
  0
VERTEX
  8
I-DISH
  5
3DA8
 10
275.307932
 20
-48.37597
 30
159.658378
 70
    64
  0
VERTEX
  8
I-DISH
  5
3DA9
 10
267.67663
 20
-101.452839
 30
126.683453
 70
    64
  0
VERTEX
  8
I-DISH
  5
3DAA
 10
270.570526
 20
-95.116091
 30
127.733486
 70
    64
  0
VERTEX
  8
I-DISH
  5
3DAB
 10
273.207269
 20
-89.342429
 30
130.79028
 70
    64
  0
VERTEX
  8
I-DISH
  5
3DAC
 10
275.352558
 20
-84.644902
 30
135.582206
 70
    64
  0
VERTEX
  8
I-DISH
  5
3DAD
 10
276.815761
 20
-81.440935
 30
141.683453
 70
    64
  0
VERTEX
  8
I-DISH
  5
3DAE
 10
279.204975
 20
-76.209286
 30
149.273667
 70
    64
  0
VERTEX
  8
I-DISH
  5
3DAF
 10
282.349437
 20
-69.323874
 30
155.05236
 70
    64
  0
VERTEX
  8
I-DISH
  5
3DB0
 10
286.020761
 20
-61.284795
 30
158.599816
 70
    64
  0
VERTEX
  8
I-DISH
  5
3DB1
 10
289.952293
 20
-52.675942
 30
159.658378
 70
    64
  0
VERTEX
  8
I-DISH
  5
3DB2
 10
267.67663
 20
-101.452839
 30
126.683453
 70
    64
  0
VERTEX
  8
I-DISH
  5
3DB3
 10
272.238571
 20
-96.188079
 30
127.733486
 70
    64
  0
VERTEX
  8
I-DISH
  5
3DB4
 10
276.395136
 20
-91.391147
 30
130.79028
 70
    64
  0
VERTEX
  8
I-DISH
  5
3DB5
 10
279.776972
 20
-87.488301
 30
135.582206
 70
    64
  0
VERTEX
  8
I-DISH
  5
3DB6
 10
282.083566
 20
-84.826349
 30
141.683453
 70
    64
  0
VERTEX
  8
I-DISH
  5
3DB7
 10
285.849926
 20
-80.479738
 30
149.273667
 70
    64
  0
VERTEX
  8
I-DISH
  5
3DB8
 10
290.806861
 20
-74.75913
 30
155.05236
 70
    64
  0
VERTEX
  8
I-DISH
  5
3DB9
 10
296.594341
 20
-68.080022
 30
158.599816
 70
    64
  0
VERTEX
  8
I-DISH
  5
3DBA
 10
302.792012
 20
-60.927529
 30
159.658378
 70
    64
  0
VERTEX
  8
I-DISH
  5
3DBB
 10
267.67663
 20
-101.452839
 30
126.683453
 70
    64
  0
VERTEX
  8
I-DISH
  5
3DBC
 10
273.537035
 20
-97.686586
 30
127.733486
 70
    64
  0
VERTEX
  8
I-DISH
  5
3DBD
 10
278.876682
 20
-94.255003
 30
130.79028
 70
    64
  0
VERTEX
  8
I-DISH
  5
3DBE
 10
283.221088
 20
-91.463023
 30
135.582206
 70
    64
  0
VERTEX
  8
I-DISH
  5
3DBF
 10
286.184208
 20
-89.558741
 30
141.683453
 70
    64
  0
VERTEX
  8
I-DISH
  5
3DC0
 10
291.022586
 20
-86.449305
 30
149.273667
 70
    64
  0
VERTEX
  8
I-DISH
  5
3DC1
 10
297.390411
 20
-82.356952
 30
155.05236
 70
    64
  0
VERTEX
  8
I-DISH
  5
3DC2
 10
304.825179
 20
-77.578916
 30
158.599816
 70
    64
  0
VERTEX
  8
I-DISH
  5
3DC3
 10
312.786891
 20
-72.462235
 30
159.658378
 70
    64
  0
VERTEX
  8
I-DISH
  5
3DC4
 10
267.67663
 20
-101.452839
 30
126.683453
 70
    64
  0
VERTEX
  8
I-DISH
  5
3DC5
 10
274.360724
 20
-99.490212
 30
127.733486
 70
    64
  0
VERTEX
  8
I-DISH
  5
3DC6
 10
280.450866
 20
-97.701985
 30
130.79028
 70
    64
  0
VERTEX
  8
I-DISH
  5
3DC7
 10
285.405885
 20
-96.24706
 30
135.582206
 70
    64
  0
VERTEX
  8
I-DISH
  5
3DC8
 10
288.785476
 20
-95.254723
 30
141.683453
 70
    64
  0
VERTEX
  8
I-DISH
  5
3DC9
 10
294.303895
 20
-93.634369
 30
149.273667
 70
    64
  0
VERTEX
  8
I-DISH
  5
3DCA
 10
301.566727
 20
-91.501809
 30
155.05236
 70
    64
  0
VERTEX
  8
I-DISH
  5
3DCB
 10
310.046463
 20
-89.011934
 30
158.599816
 70
    64
  0
VERTEX
  8
I-DISH
  5
3DCC
 10
319.127206
 20
-86.345587
 30
159.658378
 70
    64
  0
SEQEND
  8
I-DISH
  5
3DCD
  0
ENDSEC
  0
EOF
